Home » F » Finger Eleven »

Finger Eleven - Sad Exchange Tabs

Artists:  A B C D E F G H I J K L M N O P Q R S T U V W X Y Z # 

Sad Exchange Tabs

(ver. 2) Click to play this song!
Finger Eleven
 Rating:
4/5 (4 votes)
                Finger Eleven
Sad Exchange

This song is actually played by two 
guitars but I've tabbed it out for one

Tuning-DADGBE Down 1/2 step

^-bend
/-slide
.-palm mute

INTRO/VERSE
E------------------------------------------------
B------------------------------------------------
G---------------------2----------------------2---
D-------------------3----------------------3-----
A--0----------------------0--------------------2-
D----0-0-0-0--0-0-0---------0-0-0-0--0-0-0-------
   . . . . .  . . .       . . . . .  . . .

PRE-CHORUS
E--------------------------------------------------------------------
B--------------------------------------------------------------------
G--------------------------------------------------------------------
D--8888-88-0-8888-88-00-8888-88-0-8888-88----10-10-10-10-10-10-10-10-
A--8888-88-0-8888-88-00-8888-88-0-8888-88----10-10-10-10-10-10-10-10-
D--8888-88-0-8888-88-00-8888-88-0-8888-88----10-10-10-10-10-10-10-10-
       .         .          .         .      .  .  .  .  .  . 
  
CHORUS
E-------------------------------------------------
B-------------------------------------------------
G-------------------------------------------------
D--0-0000-0000-00-8888-8888-88-5555-5555-55-8--10-
A--0-0000-0000-00-8888-8888-88-5555-5555-55-8--10-
D--0-0000-0000-00-8888-8888-88-5555-5555-55-8--10-
    .    .    .  .    .    .  .    .    .  . 

VERSE

PRE-CHORUS
E-------------------------------------------------
B-------------------------------------------------
G-------------------------------------------------
D--8888-88-0-8888-88-00-8888-88-0-8888-88-5-5--55-
A--8888-88-0-8888-88-00-8888-88-0-8888-88-5-5--55-
D--8888-88-0-8888-88-00-8888-88-0-8888-88-5-5--55-
       .         .          .         .    . . 
CHORUS
E-------------------------------------------------------------------------
B-------------------------------------------------------------------------
G-------------------------------------------------------------------------
D-0-0000-0000-00-8888-8888-88-5555-5555-55-888-88-10-10-10-10-10-10-10-10-
A-0-0000-0000-00-8888-8888-88-5555-5555-55-888-88-10-10-10-10-10-10-10-10-
D-0-0000-0000-00-8888-8888-88-5555-5555-55-888-88-10-10-10-10-10-10-10-10-
   .    .    .  .    .    .  .    .    .  .   .  .

E-----------------------------------------------------------------
B-----------------------------------------------------------------
G-----------------------------------------------------------------
D-0-0000-0000-00-8888-8888-88-5555-5555-55------------------------
A-0-0000-0000-00-8888-8888-88-5555-5555-55------------------------
D-0-0000-0000-00-8888-8888-88-5555-5555-55-12/0--12/0--10-12-10-10-
   .    .    .  .    .    .  .    .    .  .    .     .
BRIDGE
E------------------------------------------------------------------
B------------------------------------------------------------------
G------------------------------------------------------------------
D-8-88-8-88-88-8888-8-88-8-88-88-8888------------------------------ X 3
A-8-88-8-88-88-8888-8-88-8-88-88-8888-------7-5-3---5---5---7-5-3--
D-8-88-8-88-88-8888-8-88-8-88-88-8888---0-0-----------0---0--------

E-------------------------------------------
B-------------------------------------------
G-------------------------------------------
D-8-88-8-88-88-8888-8-88-8-88-88-8888^^^^^--
A-8-88-8-88-88-8888-8-88-8-88-88-8888^^^^^--
D-8-88-8-88-88-8888-8-88-8-88-88-8888^^^^^--

CHORUS
E------------------------------------------------
B------------------------------------------------
G------------------------------------------------
D-2-2222-2222-22-10-10-10-10--10-10-10-10--10-10-
A-2-2222-2222-22-10-10-10-10--10-10-10-10--10-10-
D-2-2222-2222-22-10-10-10-10--10-10-10-10--10-10-
   .    .    .  .           .            .      .

E----------------------------------------------
B----------------------------------------------
G----------------------------------------------
D-7777-7777-77-9999-99-12-12-12-12-12-12-12-12-
A-7777-7777-77-9999-99-12-12-12-12-12-12-12-12-
D-7777-7777-77-9999-99-12-12-12-12-12-12-12-12-
      .    .  .   
E--------------------------------------------------------
B--------------------------------------------------------
G--------------------------------------------------------
D-2-222-22-22-222---10--10-10-10--10-10--10-10--10-10-10-
A-2-222-22-22-222---10--10-10-10--10-10--10-10--10-10-10-
D-2-222-22-22-222---10--10-10-10--10-10--10-10--10-10-10-

E--------------------------------------
B--------------------------------------
G--------------------------------------
D-7777-7777-777------------------------
A-7777-7777-777------------------------
D-7777-7777-777--14/2-14/2-12-14-12-12-

E------------------------------------------------------------------
B------------------------------------------------------------------
G------------------------------------------------------------------
D-0000-0000-00-8888-8888-88-5555-5555-555--------------------------
A-0000-0000-00-8888-8888-88-5555-5555-555--------------------------
D-0000-0000-00-8888-8888-88-5555-5555-555-12/0-12/0-10-12-10-10----
      .    .  .    .    .  .    .    .   . 

E-------------------------------------------------
B-------------------------------------------------
G-------------------------------------------------
D-0000-0000-00-8888-8888-88--5------0-------------
A-0000-0000-00-8888-8888-88--5------0-------------
D-0000-0000-00-8888-8888-88--5------0-------------
      .    .  .    .    .  .
            
Submit corrections

↑ Back to top | Tablatures and chords for acoustic guitar and electric guitar, ukulele, drums are parodies/interpretations of the original songs. You may use it for private study, scholarship, research or language learning purposes only