Home » F » Finger Eleven »

Finger Eleven - Costume For A Gutterball Tabs

Artists:  A B C D E F G H I J K L M N O P Q R S T U V W X Y Z # 

Costume For A Gutterball Tabs

(ver. 2) Click to play this song!
Finger Eleven
 Rating:
4/5 (4 votes)
                COSTUME FOR A GUTTERBALL

.-palm mute
X-muted string
/-slide

TUNING- Drop D
      - down 1/2 step


VERSE (Gtr.1)   X 4
E|----------------------------------
B|----------------------------------
G|----7------------3--5----3--5-----
D|----7------------3--5----3--5-----
A|----5------------1--3----1--3-----
D|----0-----------------------------


VERSE (Gtr.2)   X 4
E|----------------------------------
B|----------------------------------
G|----------------------------------
D|----0------------8--10---8--10----
A|----0------------8--10---8--10----
D|----0------------8--10---8--10----


VERSE ENDING (Both Gtrs)
E|---------------
B|---------------
G|----777777-----
D|----777777-----
A|----555555-----
D|----000000-----
      ...

CHORUS (Both Gtrs)
E|--------------------------------
B|--------------------------------
G|--------------------------------
D|--0--3--10--7-7/12--0--3--8--5-- X 2
A|--0--3--10--7-7/12--0--3--8--5--
D|--0--3--10--7-7/12--0--3--8--5--

E|---------------------------------------------------------------
B|---------------------------------------------------------------
G|------------9-10-----9-10-10/12/9---------9-10-----9-10/2---5--
D|--7--10--0--X--X--0--X--X--X----7--10--0--X--X--0--X--X-2-1-5--
A|--7--10--0--7--8--0--7--8--8/10-7--10--0--7--8--0--7--8-0-1-3--
D|--7--10--0--------0-------------7--10--0--------0---------1----


VERSE (Gtr.2)   X 4


VERSE (Gtr.1)   X 4
E|---------------------------------------------------
B|---------------------------------------------------
G|----7------------3--5--7777--7777--7777--3--5------
D|----7------------3--5--------------------3--5------
A|----5------------1--3--------------------1--3------
D|----0----------------------------------------------


CHORUS


BRIDGE (Gtr.1)
E|---------------------------------------------------
B|---------------------------------------1------1----
G|----------2-0-2-----0---2-0-2-----0--2---3--2---3--
D|--0-------------3-2-----------3-2------------------
A|--0------------------------------------------------
D|--0-----0-------------0----------------------------

E|------------------------------------------------------------
B|----------------------------------1------1------1------1----
G|-----2-0-2-----0---2-0-2-----0--2---3--2---3--2---3--2---3--
D|-----------3-2-----------3-2--------------------------------
A|------------------------------------------------------------
D|---0-------------0------------------------------------------

E|---------------------------------------------------
B|---------------------------------------------------
G|-------------------------------77777777------------
D|----0---0---0---0--0---0---0---77777777------------
A|----0---0---0---0--0---0---0---55555555------------
D|----0---0---0---0--0---0---0---00000000------------
                                 ....

BRIDGE (Gtr.2)
E|----------0-------------------------------------------------
B|----3-------3-----------------------------------------------
G|-------2------2----2222-2222-2222-2222-2222-2222-2222-2222--
D|------------------------------------------------------------
A|------------------------------------------------------------
D|------------------------------------------------------------
                     .... .... .... .... .... .... .... .... 

E|-----------------0-----0-----0-----0---------------
B|------3------------3-----3-----3-----3-------------
G|------------2--------2-----2-----2-----2-----------
D|---------------------------------------------------
A|---------------------------------------------------
D|---------------------------------------------------

E|---------------------------------------------------
B|---------------------------------------------------
G|-------------------------------77777777------------
D|----0---0---0---0--0---0---0---77777777------------
A|----0---0---0---0--0---0---0---55555555------------
D|----0---0---0---0--0---0---0---00000000------------
                                 ....

CHORUS
E|----------------------------------
B|----------------------------------
G|----------------------------------
D|--0--3--10--7-7/12--0--3--8--5---- X 2
A|--0--3--10--7-7/12--0--3--8--5----
D|--0--3--10--7-7/12--0--3--8--5----

E|-----------------------------------
B|-----------------------------------
G|------------9-10-----9-10-10/12/9--
D|--7--10--0--X--X--0--X--X--X----7-- X 2
A|--7--10--0--7--8--0--7--8--8/10-7--
D|--7--10--0--------0-------------7--

E|---------------------------------
B|---------------------------------
G|--9---------9-10-----9-10/2---5--
D|--7--10--0--X--X--0--X--X-2-1-5--
A|--7--10--0--7--8--0--7--8-0-1-3--
D|--7--10--0--------0---------1----


Gtr.1 End on (gradually fade out)
E|--------------
B|--------------
G|--------------
D|-----0000----- X 8 
A|--------------
D|---0------0---


Gtr.2 End on
E|--------------
B|--------------
G|--------------
D|----0---------
A|----0---------
D|----0---------
            
Submit corrections

↑ Back to top | Tablatures and chords for acoustic guitar and electric guitar, ukulele, drums are parodies/interpretations of the original songs. You may use it for private study, scholarship, research or language learning purposes only