» » »

Fifth Dimension - Aquarius Bass

Artists:  A B C D E F G H I J K L M N O P Q R S T U V W X Y Z # 

Aquarius Bass

(ver. 3) Click to play this song!
Fifth Dimension
 Rating:
4/5 (4 votes)

 Aquarius lessons Tabs too difficult? Try these video lessons and learn fast
 
                Gtr I (E A D G) - 'Joe Osborn - Bass'


 "Aquarius"
 Intro
  Q=94
 4/4
  Gtr I
             <
  W          E S S E E E. S E E
|----------|--------------------|
|----------|--------------------|
|----------|-3---3-3---3--3-3---|
|----------|---------3--------3-|


  E S S E E E S S E E   E S S E E E S S E E   E S S E E E S S E E
|---------------------|---------------------|---------------------|
|---------------------|---------------------|---------------------|
|-3---3-3---3---3-3---|-3---3-3---3---3-3---|-3---3-3---3---3-3---|
|---------3---------3-|---------3---------3-|---------3---------3-|


                        1st Verse
                         Q=180
  E S S E E E S S E E    Q  E e Q  Q    Q  E e Q  Q    Q  E e Q  Q
|---------------------||--------------|--------------|---------------|
|---------------------||--------------|--------------|---------------|
|-3---3-3---3---3-3---||-3----3-3-----|-3----3-3-----|-3----3-3------|
|---------3---------3-||-----------3--|-----------3--|-----------3---|


  Q  E e Q  Q    Q  E e Q  Q    Q  E e Q  Q    Q  E e Q  Q
|--------------|--------------|--------------|---------------|
|--------------|--------------|--------------|---------------|
|-3----3-3-----|-3----3-3-----|-3----3-3-----|-3----3-3------|
|-----------3--|-----------3--|-----------3--|-----------3---|


  Q  E e Q  Q    Q  E e Q  Q    Q  E e Q  Q    Q  E e Q  Q
|--------------|--------------|--------------|---------------|
|--------------|--------------|--------------|---------------|
|-3----3-3-----|-3----3-3-----|-3----3-3-----|-3----3-3------|
|-----------3--|-----------3--|-----------3--|-----------3---|


  Q  E e Q  Q    Q  E e Q  Q    Q  E e Q  Q    Q  Q  H
|--------------|--------------|--------------|------------||
|--------------|-1----1-1-----|-3----3-3--3--|------------||
|-3----3-3-----|-----------1--|--------------|-1----------||
|-----------3--|--------------|--------------|------------||


 Chorus
  W          Q.   e Q  Q    Q  E e Q  Q    Q  E e Q  Q
|----------|-1----1-1-----|-1----1-1-----|-1----1-1------|
|----------|-----------1--|-----------1--|-----------1---|
|----------|--------------|--------------|---------------|
|----------|--------------|--------------|---------------|


  Q  E e Q  Q    Q  E e Q  Q    Q.   e H      Q  E e H
|-1----1-1-----|--------------|-------------|-------------|
|-----------1--|--------------|-------------|-3----3-3----|
|--------------|-3----3-3-----|-3----3-3----|-------------|
|--------------|-----------3--|-------------|-------------|


  Q.   E Q.   E   Q.   e H      Q.   e H
|---------------|-------------|-------------|
|-3----3-3------|-3----3-3----|-3----3-3----|
|---------------|-------------|-------------|
|---------------|-------------|-------------|


  Q.   e H      Q.   e Q.   E   Q.   E Q  Q    Q.   E Q  Q
|-------------|---------------|--------5-----|--------5------||
|-------------|---------------|------5----5--|------5----5---||
|-3----3-3----|-3----3-3------|-3------------|-3-------------||
|-------------|---------------|--------------|---------------||


 Bridge
  Q  E E Q  Q    Q.   E Q  Q    Q  E E Q  Q    Q  E E Q  Q
|-3------3-----|--------------|--------------|---------------|
|------3----3--|------3-5-----|-8------8-----|--------5------|
|--------------|-6---------6--|------8----8--|-6----8----6---|
|--------------|--------------|--------------|---------------|


  Q  E E Q  Q    Q.   E Q  E E   H    H      Q.   E Q  Q
|--------------|---------------|-----------|---------------|
|-8------8-----|--------5------|-----------|---------------|
|------8----8--|-6----8----6---|-3----5----|-6----6-6--6---|
|--------------|---------------|-----------|---------------|


  H    H      Q.   E H      Q.   E H      Q.   E Q  Q
|-----------|-------------|-------------|---------------|
|-----------|-------------|--------3----|-5----5-5------|
|-6----5----|-3----3-3----|-3----3------|-----------5---|
|-----------|-------------|-------------|---------------|


  Q.   E Q.   E   Q.   E Q.   E   Q.   E Q.   E
|---------------|---------------|---------------|
|-3----3-3------|-3----3-3------|-3----3-3------|
|---------------|---------------|---------------|
|---------------|---------------|---------------|


                                 Interlude
  Q.   E Q.   E   Q.   E Q  Q     Q  E E Q  Q
|---------------|--------------||--------------|
|-3----3-3------|--------------||--------------|
|---------------|-3----3-3-----||-3----3-3-----|
|---------------|--------------||--------------|


  Q  E E Q.   E   Q  E E Q.   E   Q  E E Q.   E
|---------------|---------------|---------------|
|---------------|---------------|---------------|
|-3----3-3------|-3----3-3------|-3----3-3------|
|---------------|---------------|---------------|


                                                2nd Verse
  Q  E E Q.   E   Q  E E Q  Q    Q  E E Q  Q     Q  E E Q  Q
|---------------|--------------|--------------||---------------|
|---------------|--------------|--------------||---------------|
|-3----3-3------|-3----3-3-----|-3----3-3-----||-3----3-3------|
|---------------|--------------|--------------||-----------3---|


  Q  E E Q  Q    Q  E E Q  Q    Q  E E Q  Q    Q  E E Q  Q
|--------------|--------------|--------------|---------------|
|--------------|--------------|--------------|---------------|
|-3----3-3-----|-3----3-3-----|-3----3-3-----|-3----3-3------|
|-----------3--|-----------3--|-----------3--|-----------3---|


  Q  E E Q  Q    Q  E E Q  Q    Q  E E Q  Q    Q  E E Q  Q
|--------------|--------------|--------------|---------------|
|--------------|--------------|--------------|---------------|
|-3----3-3-----|-3----3-3-----|-3----3-3-----|-3----3-3------|
|-----------3--|-----------3--|-----------3--|-----------3---|


  Q  E E Q  Q    Q  E E Q  Q    Q  E E Q  Q    Q  E E Q  Q
|--------------|--------------|--------------|---------------|
|--------------|--------------|--------------|-1----1-1------|
|-3----3-3-----|-3----3-3-----|-3----3-3-----|-----------1---|
|-----------3--|-----------3--|-----------3--|---------------|


                                         Chorus
  Q  E E Q  Q    Q  Q  H      W           Q.   E Q  Q
|--------------|------------|----------||-1----1-1------|
|-3----3-3--3--|------------|----------||-----------1---|
|--------------|-1----------|----------||---------------|
|--------------|------------|----------||---------------|


  Q  E E Q  Q    Q  E E Q  Q    Q  E E Q  Q    Q  E E Q  Q
|-1----1-1-----|-1----1-1-----|-1----1-1-----|---------------|
|-----------1--|-----------1--|-----------1--|---------------|
|--------------|--------------|--------------|-3----3-3------|
|--------------|--------------|--------------|-----------3---|


  Q.   E H      Q  E E H      Q.   E Q.   E
|-------------|-------------|---------------|
|-------------|-3----3-3----|-3----3-3------|
|-3----3-3----|-------------|---------------|
|-------------|-------------|---------------|


  Q.   E H      Q.   E H      Q.   E H
|-------------|-------------|-------------|
|-3----3-3----|-3----3-3----|-------------|
|-------------|-------------|-3----3-3----|
|-------------|-------------|-------------|


  Q.   E Q.   E   Q.   E Q  Q    Q.   E Q  Q    Q  E E H
|---------------|--------5-----|--------5-----|-------------|
|---------------|------5----5--|------5----5--|-3----3-3----|
|-3----3-3------|-3------------|-3------------|-------------|
|---------------|--------------|--------------|-------------|


  Q.   E Q.   E   Q.   E H      Q.   E H
|---------------|-------------|-------------|
|-3----3-3------|-3----3-3----|-3----3-3----|
|---------------|-------------|-------------|
|---------------|-------------|-------------|


  Q.   E H      Q.   E Q.   E   e e e e e e e e
|-------------|---------------|-----------------|
|-------------|---------------|-----------------|
|-3----3-3----|-3----3-3------|-3-3-3-3-3-3-3-3-|
|-------------|---------------|-----------------|


                    Coda "Let The Sunshine In"
                     Q=116
  e e e e e e e e    Q  Q  E E +E  S S   E E E. S +S  S E E E
|-----------------||-4-------4-(4)---2-|-----6----------------|
|-----------------||----4--------------|-4-4----4-(4)-4---2-3-|
|-3-3-3-3-3-3-3-3-||-------------------|----------------4-----|
|-----------------||-------------------|----------------------|


  Q  Q  E E +E  S S   E E E. S +S  S E E E
|----6--------------|----------------------|
|-4-------6-(6)-8---|-9-9----9-(9)-9-9-8-7-|
|-------------------|-----9----------------|
|-------------------|----------------------|


  E E E. S +S  S E E E   Q  E. S +E  E E E
|----------------------|--------------------|
|-5-5----5-(5)-5-5-4---|--------------------|
|-----5--------------7-|-5--5--5-(5)-5-4-3--|
|----------------------|--------------------|


  E E E S S +E  E +E  S S   Q  E. S +S  S E  E E
|-4---4---2-(2)-3-(3)-4---|-------------6-9-11---|
|---4---------------------|----------------------|
|-------------------------|-9--9--9-(9)--------8-|
|-------------------------|----------------------|


  Q  Q  E E +E  S S   E E E. S +S  S E E E
|----6--------------|-4-4----4-(4)-4-4-3-2--|
|---------6-(6)-8---|-----4-----------------|
|-9-----------------|-----------------------|
|-------------------|-----------------------|


  E E E. S +S  S E E E   Q  E. S +E  E E E
|----------------------|-------------------|
|-5-5----5-(5)-5-5-4-2-|-0--0--0-(0)-0-----|
|-----5----------------|---------------4-3-|
|----------------------|-------------------|


  E E E S S +E  E +E  S S   E E E E   E S  S  +S  S  E
|-4---4---2-(2)-3-(3)-4---|---------/11---11-(11)---11--|
|---4---------------------|-2-4-4-----------------------|
|-------------------------|-----------------------------|
|-------------------------|-----------------------------|


  Q   E. S +E   E  +E   S S    E  E  E.  S  +S   S  E  E  E
|---------------------------|-------------------------------|
|----11---------------------|-------------------------------|
|-9------9-(9)-11-(11)-13---|-14-14-----14-(14)-14-14-13-12-|
|---------------------------|-------14----------------------|


   E  E  E.  S  +S   S  E E E   Q  E. S +E  E E E
|-----------------------------|--------------------|
|-----------------------------|--------------------|
|-10-10-----10-(10)-10-10-9-7-|-5--5--5-(5)-5-4-3--|
|-------10--------------------|--------------------|


  E E E S S +E  E +E  S S   Q  E. S +S  S E  E E
|-4---4---2-(2)-3-(3)-4---|-------------6-9-11---|
|---4---------------------|-4--4--4-(4)----------|
|-------------------------|--------------------8-|
|-------------------------|----------------------|


  Q   Q  E  E  +E  S S   E E E. S +S  S E E E
|----------------------|-4-4----4-(4)-4-4-3-2--|
|----11------------8---|-----4-----------------|
|-9--------11-(11)-----|-----------------------|
|----------------------|-----------------------|


  E E E. S +S  S E E E   Q  E. S +E  E E E
|-0-0----0-(0)-0-0-----|-------------------|
|-----0------------4-2-|-0--0--0-(0)-0-----|
|----------------------|---------------4-3-|
|----------------------|-------------------|


  Q  Q  E E +E  S S   E E E. S +S  S E E E
|-4-------4-(4)---2-|-----------------------|
|----4--------------|-4-4-4--4-(4)-4---2-3--|
|-------------------|----------------4------|
|-------------------|-----------------------|


  S E. E.  S  E  E  +S  S E   E E E. S +S  S E E E
|-4-6--9-----11-------------|----------------------|
|---------11----11-(11)-----|-9-9----9-(9)-9-9-9-7-|
|-------------------------9-|-----9----------------|
|---------------------------|----------------------|


  E E E. S +S  S E E E   Q  E. S +E  E E E
|----------------------|--------------------|
|-5-5----5-(5)-5-5-4-2-|-0--0--0-(0)-0------|
|-----5----------------|---------------4-3--|
|----------------------|--------------------|


  E E E S S +E  E +E  S S   Q  E. S +S  S E  E E
|-4---4---2-(2)-3-(3)-4---|-------------6-9-11---|
|---4---------------------|-4--4--4-(4)----------|
|-------------------------|--------------------8-|
|-------------------------|----------------------|


  Q   Q  E  E  +E  S S   E E E. S +S  S E E E
|----------------------|-4-4----4-(4)-4-4-3-2--|
|----11------------8---|-----4-----------------|
|-9--------11-(11)-----|-----------------------|
|----------------------|-----------------------|


  E E E. S +S  S E E E   Q  E. S +E  E E E
|-0-0----0-(0)-0-0-----|-------------------|
|-----0------------4-2-|-0--0--0-(0)-0-----|
|----------------------|---------------4-3-|
|----------------------|-------------------|


  Q  Q  E E +E  S S   E E E. S +S  S E E E
|-4-------4-(4)---2-|-----6-----------------|
|----4--------------|-4-4----4-(4)-4---2-3--|
|-------------------|----------------4------|
|-------------------|-----------------------|


  Q  Q  E E +E  S S   E E E. S +S  S E E E
|----6--------------|----------------------|
|-4-------6-(6)-8---|-9-9----9-(9)-9-9-8-7-|
|-------------------|-----9----------------|
|-------------------|----------------------|


  E E E. S +S  S E E E   Q  E. S +E  E E E
|----------------------|--------------------|
|-5-5----5-(5)-5-5-4-2-|-0--0--0-(0)-0------|
|-----5----------------|---------------4-3--|
|----------------------|--------------------|


  Q  Q  E E +E  S S   E E E. S +S  S E E E
|-4-------4-(4)---2-|-----6----------------|
|----4--------------|-4-4----4-(4)-4---2-3-|
|-------------------|----------------4-----|
|-------------------|----------------------|


  Q  Q  E E +E  S S   E E E. S +S  S E E E
|----6--------------|----------------------|
|-4-------6-(6)-8---|-9-9----9-(9)-9-9-8-7-|
|-------------------|-----9----------------|
|-------------------|----------------------|


  E E E. S +S  S E E E   Q  E. S +E  E E E
|----------------------|-------------------|
|-5-5----5-(5)-5-5-4-2-|-0--0--0-(0)-0-----|
|-----5----------------|---------------4-3-|
|----------------------|-------------------|


  Q  Q  E E +E  S S   E E E. S +S  S E E E
|-4-------4-(4)---2-|-----6-----------------|
|----4--------------|-4-4----4-(4)-4---2-3--|
|-------------------|----------------4------|
|-------------------|-----------------------|


  Q  Q  E E +E  S S   E E E. S +S  S E E E
|----6--------------|----------------------|
|-4-------6-(6)-8---|-9-9----9-(9)-9-9-8-7-|
|-------------------|-----9----------------|
|-------------------|----------------------|


  E E E. S +S  S E E E   Q  E. S +E  E E E
|----------------------|--------------------|
|-5-5----5-(5)-5-5-4-2-|-0--0--0-(0)-0------|
|-----5----------------|---------------4-3--|
|----------------------|--------------------|


  Q  Q  E E +E  S S   E E E. S +S  S E E E
|-4-------4-(4)---2-|-----6----------------|
|----4--------------|-4-4----4-(4)-4---2-3-|
|-------------------|----------------4-----|
|-------------------|----------------------|


  Q  Q  E E +E  S S   E E E. S +S  S E E E
|----6--------------|----------------------|
|-4-------6-(6)-8---|-9-9----9-(9)-9-9-8-7-|
|-------------------|-----9----------------|
|-------------------|----------------------|


  E E E. S +S  S E E E   Q  E. S +E  E E E
|----------------------|-------------------|
|-5-5----5-(5)-5-5-4-2-|-0--0--0-(0)-0-----|
|-----5----------------|---------------4-3-|
|----------------------|-------------------|


  Q  Q  E E +E  S S   E E E. S +S  S E E E
|-4-------4-(4)---2-|-----6-----------------|
|----4--------------|-4-4----4-(4)-4---2-3--|
|-------------------|----------------4------|
|-------------------|-----------------------|


  Q  Q  E E +E  S S   E E E. S +S  S E E E
|----6--------------|----------------------|
|-4-------6-(6)-8---|-9-9----9-(9)-9-9-8-7-|
|-------------------|-----9----------------|
|-------------------|----------------------|


  E E E. S +S  S E E E   Q  E. S +E  E E E
|----------------------|--------------------|
|-5-5----5-(5)-5-5-4-2-|-0--0--0-(0)-0------|
|-----5----------------|---------------4-3--|
|----------------------|--------------------|


  Q  Q  E E +E  S S   E E E. S +S  S E E E
|-4-------4-(4)---2-|-----6----------------|
|----4--------------|-4-4----4-(4)-4---2-3-|
|-------------------|----------------4-----|
|-------------------|----------------------|


  Q  Q  E E +E  S S   E E E. S +S  S E E E
|----6--------------|----------------------|
|-4-------6-(6)-8---|-9-9----9-(9)-9-9-8-7-|
|-------------------|-----9----------------|
|-------------------|----------------------|


  E E E. S +S  S E E E   Q  E. S +E  E E E
|----------------------|-------------------*|
|-5-5----5-(5)-5-5-4-2-|-0--0--0-(0)-0-----*|
|-----5----------------|---------------4-3-*|
|----------------------|-------------------*|

            
Submit corrections


        Aquarius lessons Hard to play? Try these video lessons and learn fast Aquarius lessons
        
↑ Back to top | Tablatures and chords for acoustic guitar and electric guitar, ukulele, drums are parodies/interpretations of the original songs. You may use it for private study, scholarship, research or language learning purposes only