» » »

Fifth Dimension - Age Of Aquarius Bass

Artists:  A B C D E F G H I J K L M N O P Q R S T U V W X Y Z # 

Age Of Aquarius Bass

(ver. 1) Click to play this song!
Fifth Dimension
 Rating:
4/5 (4 votes)

 Age Of Aquarius lessons Tabs too difficult? Try these video lessons and learn fast
 
                Fifth Dimension: Aquarius
    
Tuning : E A D G 	Time Signature: 4/4 
 
 Fading in        |       |        |       |         
|----------------|----------------|----------------| 
|----------------|----------------|----------------| 
|3-----3-3-------|3-----3-3-------|3-----3-3-------| 
|------------3---|------------3---|------------3---| 
 
 |       |        |       |        |       |         
|----------------|----------------|----------------| 
|----------------|----------------|----------------| 
|3-----3-3-------|3-----3-3-------|3-----3-3-------| 
|------------3---|------------3---|------------3---| 
 
 |       When the.moon... |        |       |         
|----------------|----------------|----------------| 
|----------------|----------------|----------------| 
|3-----3-3-------|3-----3-3-------|3-----3-3-------| 
|------------3---|------------3---|------------3---| 
 
 |       |        |       |        Jupiter...        
|----------------|----------------|----------------| 
|----------------|----------------|----------------| 
|3-----3-3-------|3-----3-3-------|3-----3-3-------| 
|------------3---|------------3---|------------3---| 
 
 |       |        |       |        |       |         
|----------------|----------------|----------------| 
|----------------|----------------|----------------| 
|3-----3-3-------|3-----3-3-------|3-----3-3-------| 
|------------3---|------------3---|------------3---| 
 
 |       |        |       |        |       |         
|----------------|----------------|----------------| 
|----------------|----------------|----------------| 
|3-----3-3-------|3-----3-3-------|3-----3-3-------| 
|------------3---|------------3---|------------3---| 
 
 |       |   and  love... |        |       |         
|----------------|----------------|----------------| 
|----------------|----------------|----------------| 
|3-----3-3-------|6-----6-6-------|8-----8-8-------| 
|------------3---|------------6---|------------8/6-| 
 
 |       |        dawning of the   age of ....       
|----------------|----------------|----------------| 
|----------------|----------------|6-----6-6-------| 
|----------------|----------------|------------6---| 
|6---------------|----------------|----------------| 
 
 |       |        |       |        |       |         
|----------------|----------------|----------------| 
|6-----6-6-------|6-----6-6-------|6-----6-6-------| 
|------------6---|------------6---|------------6---| 
|----------------|----------------|----------------| 
 
 |       |        |       |        |       |         
|----------------|----------------|----------------| 
|----------------|----------------|----------------| 
|--------------10|----------------|8-----8-8-------| 
|8-----8-8-------|8-----8-8-------|------------8---| 
 
 |       |        |       |        |       |         
|----------------|----------------|----------------| 
|----------------|----------------|----------------| 
|8-----8-8-------|8-----8-8-------|8-----8-8-------| 
|------------8---|----------------|------------8---| 
 
 |       |        |       |        |       |         
|----------------|----------------|----------------| 
|----------------|----------------|--------10------| 
|------------10--|----------------|------10----10--| 
|8-----8-8-------|8-----8-8-------|8---------------| 
 
 |       |        Harmony and understanding...       
|----------------|----------------|----------------| 
|--------10------|8-------8-------|--------5-------| 
|------10--------|------8-----8---|6-----8-----6---| 
|8-----------8/10|----------------|----------------| 
 
 |       |        |       |        |       |         
|----------------|----------------|----------------| 
|8-------8-------|--------5-------|8-------8-------| 
|------8-----8---|6-----8-----6---|------8-----8---| 
|----------------|----------------|----------------| 
 
 |       |        |       |        |       |         
|----------------|----------------|----------------| 
|--------5-------|----------------|----------------| 
|6-----8-----6/4-|3-------5-------|6-----6-6---6---| 
|----------------|----------------|----------------| 
 
 |       |        |       |        |       |         
|----------------|----------------|----------------| 
|----------------|----------------|--------3-------| 
|6-------5-------|3-----3-3-------|3-----3---------| 
|----------------|----------------|----------------| 
 
 |       |     Aquarius...|        |       |         
|----------------|----------------|----------------| 
|5-----5-5-------|3-----3-3-------|3-----3-3-------| 
|------------5---|----------------|----------------| 
|----------------|----------------|----------------| 
 
 |       |        |       |        |       |         
|----------------|----------------|----------------| 
|3-----3-3-------|3-----3-3-------|----------------| 
|------------3---|------------3---|3-----3-3-------| 
|----------------|----------------|------------3---| 
 
 |       |        |       |        |       |         
|----------------|----------------|----------------| 
|----------------|----------------|----------------| 
|3-----3-3-------|3-----3-3-------|3-----3-3-------| 
|----------------|------------3---|------------3---| 
 
 |       |        |       |        |       |         
|----------------|----------------|----------------| 
|----------------|----------------|----------------| 
|3-----3-3-------|3-----3-3-------|3-----3-3-------| 
|----------------|----------------|----------------| 
 
 |     When the...moon... |        |       |         
|----------------|----------------|----------------| 
|----------------|----------------|----------------| 
|3-----3-3-------|3-----3-3-------|3-----3-3-------| 
|----------------|------------3---|------------3---| 
 
 |       |        |       |        |       |         
|----------------|----------------|----------------| 
|----------------|----------------|----------------| 
|3-----3-3-------|3-----3-3-------|3-----3-3-------| 
|------------3---|------------3---|----------------| 
 
 |       |        |       |        |       |         
|----------------|----------------|----------------| 
|----------------|----------------|----------------| 
|3-----3-3-------|3-----3-3-------|3-----3-3-------| 
|------------3---|------------3---|------------3---| 
 
 |       |        |       |        |       |         
|----------------|----------------|----------------| 
|----------------|----------------|----------------| 
|3-----3-3-------|3-----3-3-------|3-----3-3-------| 
|------------3---|------------3---|------------3---| 
 
 |       |   and  love... |        |       |         
|----------------|----------------|----------------| 
|----------------|----------------|----------------| 
|3-----3-3-------|6-----6-6-------|8-----8-8-------| 
|------------3---|----------------|------------8/6-| 
 
 |       |        dawning of the   |       |         
|----------------|----------------|----------------| 
|----------------|----------------|6-----6-6-------| 
|----------------|----------------|------------6---| 
|6---------------|----------------|----------------| 
 
 |       |        |       |        |       |         
|----------------|----------------|----------------| 
|6---6-6-6-------|6-----6-6-------|6-----6-6-------| 
|------------6---|------------6---|------------6/3-| 
|----------------|----------------|----------------| 
 
 |       |        |       |        |       |         
|----------------|----------------|----------------| 
|----------------|----------------|3-----3-3-------| 
|3-----3-3-------|3-----3-3-------|----------------| 
|----------------|----------------|----------------| 
 
 |       |        |       |        |       |         
|----------------|----------------|----------------| 
|3-----3-3-------|3-----3-3-------|3-----3-3-------| 
|------------3---|------------3---|------------3---| 
|----------------|----------------|----------------| 
 
 |       |        |       |        |       |         
|----------------|----------------|--------5-------| 
|----------------|----------------|------5-----5---| 
|3-----3-3-------|3-----3-3-------|3---------------| 
|------------3---|----------------|----------------| 
 
 |       |        |       |        |       |         
|--------5-------|----------------|----------------| 
|------5-----5---|3-----3-3-------|3-----3-3-------| 
|3---------------|------------3---|------------3---| 
|----------------|----------------|----------------| 
 
 |       |        |       |        |       |         
|----------------|----------------|----------------| 
|3-----3-3-------|3-----3-3---3---|----------------| 
|------------3---|--------------3-|3-----3-3-------| 
|----------------|----------------|------------3---| 
 
 |       |        |       |        |       |         
|----------------|----------------|----------------| 
|----------------|----------------|----------------| 
|3-----3-3-------|3---3-3-3-3-3-3-|3---3-3-3-3-3-3-| 
|------------3---|----------------|----------------| 
 
 tempo 120 (changes to 4/4)       |       |       |       |         
|4-------------------4-------2---|--------------------------------| 
|--------4---------------4-------|4---4---------4-----------------| 
|--------------------------------|--------4---4-------1---2---4---| 
|--------------------------------|--------------------------------| 
 
 |       |       |       |        |       |       |       |         
|------------------------2---3---|4---4---------4-----4---3---4---| 
|4---4-------2-3-4---4-----------|--------4---4-------------------| 
|--------4-----------------------|--------------------------------| 
|--------------------------------|--------------------------------| 
 
 |       |       |       |        |       |       |       |         
|--------------------------------|--------------------------------| 
|5---5---5-----5-----5---4-------|------------------------7---8---| 
|------------5---------------7---|5---5---5-----------5-----------| 
|--------------------------------|--------------------------------| 
 
 |       |       |       |        |       |       |       |         
|--------------------------------|--------------------9---11------| 
|9-------9-----7-----9-------9---|--------------1011----------11--| 
|------------9-----9-----9-------|9-------9-----------------------| 
|--------------------------------|--------------------------------| 
 
 |       |       |       |        |       |       |       |         
|--------------------------------|--------------------------------| 
|----------------------------7---|9-------9-----7-----8---9-------| 
|9-------9-----7-----8---9-------|------------9---------------9---| 
|------------9-------------------|--------------------------------| 
 
 |       |       |       |        |       |       |       |         
|--------------------------------|--------------------------------| 
|5-------5-----5-----5---4-------|------------------------7---8---| 
|------------5---------------7---|5-------5-----4-5---5-----------| 
|--------------------------------|--------------------------------| 
 
 |       |       |       |        |       |       |       |         
|--------------------------------|--------------1011--9h11--9h11--| 
|9-------9-----7-----9-------9---|--------------------------------| 
|------------9-----9-----9-------|7---9---9-----------------------| 
|--------------------------------|--------------------------------| 
 
 |       |       |       |        |       |       |       |         
|--------------------------------|--------------------------------| 
|----------------------------7---|9-------9-----7-----9-----9-----| 
|9-------9-----7-----8---9-------|------------9-----9-----9-----7-| 
|------------9-------------------|--------------------------------| 
 
 |       |       |       |        |       |       |       |         
|--------------------------------|--------------------------------| 
|5-------5-----5-----5---4-------|------------------------7---8---| 
|------------5-----5---------7---|5-------5-----4-5---5-----------| 
|--------------------------------|--------------------------------| 
 
 |       |       |       |        |       |       |       |         
|--------------------------------|--------------------------------| 
|9-------9-------9---9-------9---|--------------------------------| 
|--------------9-----------9-----|9-------9-----7-----9-------7---| 
|--------------------------------|------------9-----9-----9-------| 
 
 |       |       |       |        |       |       |       |         
|--------------------------------|--------------------------------| 
|--------------------------------|9-------9-----7-----9-------9---| 
|9-------9-------7---9-------7---|------------9-----9-----9-------| 
|--------------9---9-------9-----|--------------------------------| 
 
 |       |       |       |        |       |       |       |         
|--------------------------------|--------------------7-----------| 
|5-------5-------5---5-------5---|------------------7-----7-------| 
|--------------5-----------5-----|5-------5-----4-5-----------5---| 
|--------------------------------|--------------------------------| 
 
 |       |       |       |        |       |       |       |         
|--------------------------------|--------------------------------| 
|7h--9---9-----7-----8---9-------|--------------------------------| 
|------------9---------------9---|7h--9---9-----8-9---9-------9---| 
|--------------------------------|--------------------------------| 
 
 |       |       |       |        |       |       |       |         
|--------9-------11--------------|--------------------------------| 
|11------------11----11----------|9-------9-----7-----8---9-------| 
|----------------------------9---|------------9---------------8---| 
|--------------------------------|--------------------------------| 
 
 |       |       |       |        |       |       |       |         
|--------------------------------|--------------------7-----------| 
|5-------5-------5---5---4-------|------------------7-----7-------| 
|--------------5-------------7---|5-------5-----4-5-----------5---| 
|--------------------------------|--------------------------------| 
 
 |       |       |       |        |       |       |       |         
|--------------------------------|--------------------------------| 
|7h--9---9-----7-7-7-8---9-------|--------------------------------| 
|----------------------------9---|9---9-------9-------7-------8---| 
|--------------------------------|----------9-----9---------------| 
 
 |       |       |       |        |       |       |       |         
|--------------------------------|--------------------------------| 
|------------------------7---8---|9-------9-----9-----7---8---9---| 
|9-------9-----7-----9-----------|------------9-----9-------------| 
|------------9-------------------|--------------------------------| 
 
 |       |       |       |        |       |       |       |         
|--------------------------------|--------------------------------| 
|5-------5-------5---5---4-------|------------------------7---8---| 
|--------------5-------------7---|5-------5-----4-5---5-----------| 
|--------------------------------|--------------------------------| 
 
 |       |       |       |        |       |       |       |         
|--------------------------------|--------------------11----------| 
|9-------9-----7-----8---9-------|------------------11----11------| 
|------------9---------------9---|7h--9---9-----8-9-----------9---| 
|--------------------------------|--------------------------------| 
 
 |       |       |       |        |       |       |       |         
|11------11----9-11--11----9-11--|--------------------------------| 
|--------------------------------|9-------9-----7-----9-------9---| 
|--------------------------------|------------9-------------9-----| 
|--------------------------------|--------------------------------| 
 
 |       |       |       |        |       |       |       |         
|--------------------------------|--------------------------------| 
|5-------5-----5-----5---4-------|------------------------7---8---| 
|------------5-----5---------7---|5-------5-----4-5---5-----------| 
|--------------------------------|--------------------------------| 
 
 |       |       |       |        |       |       |       |         
|--------------------------------|--------------------------------| 
|9-------9-----9-----9-------9---|--------------------------------| 
|----9-------9-----9-----9-------|9-------9-----9-----9-------7---| 
|--------------------------------|----9-------9-----9-----9-------| 
 
 |       |       |       |        |       |       |       |         
|--------------------------------|--------------------------------| 
|--------------------------------|9-------9-----9-----9-----9-----| 
|9-------9---7---9-----7---9-9---|----9-------9-----------9-------| 
|----------9---------9-----------|--------------------------------| 
 
 |       |       |       |        |       |       |       |         
|--------------------------------|------------6h7-----------------| 
|5-------5-------5---5-------5---|--------------------7-----------| 
|--------------5-----------5-----|5-------5-----------------5-----| 
|--------------------------------|--------------------------------| 
 
 |       |       |       |        |       |       |       |         
|--------------------------------|--------------------------------| 
|9-------9-------7---8-------9---|--------------------------------| 
|--------------9-----------------|9-------9-----7-----8---9-------| 
|--------------------------------|------------9---------------9---| 
 
 |       |       |       |        |       |       |       |         
|--------------------------------|--------------------------------| 
|----------------------------7---|9-------9-----9-----9-------9---| 
|9-------9-----7---7-8---9-------|------------9-------------------| 
|----9-------9-------------------|--------------------------------| 
 
 |       |       |       |        |       |       |       |         
|--------------------------------|--------------------------------| 
|5-------5-----5-----5---4-------|----------------------------7---| 
|------------5-----5---------7---|5---5-------5-------5---5-------| 
|--------------------------------|----------5-------5-------------| 
 
 |       |       |       |        |       |       |       |         
|--------------------------------|--------------------11----------| 
|7h--9---9-----7---8-9---9-------|------------------------11------| 
|------------9---------------9---|7h--9---9-----8h9-----------9---| 
|--------------------------------|--------------------------------| 
 
 |       |       |       |        |       |       |       |         
|--------------------------------|--------------------------------| 
|----------------------------7---|9-------9-------9---9-------9---| 
|9-------9-------7---8-----9-----|--------------9-----------9-----| 
|--------------9-----------------|--------------------------------| 
 
 |       |       |       |        |       |       |       |         
|--------------------------------|--------------------------------| 
|5---5---5---5---5---5---4-------|----------------------------7---| 
|----------------------------7---|5-------5-------5-------5-------| 
|--------------------------------|------------5-------5-----------| 
 
 |       |       |       |        |       |       |       |         
|--------------------------------|--------------------------------| 
|7h--9---9-----7-----8-------9---|--------------------------------| 
|------------9-------------------|9-------9-------9-------9-------| 
|--------------------------------|--------------9-------------9---| 
 
 |       |       |       |        |       |       |       |         
|--------------------------------|--------------------------------| 
|----------------------------7---|9-------9-------9---9-------9---| 
|9-------9-------9-------9-------|--------------------------9-----| 
|--------------------------------|--------------------------------| 
 
 |       |       |       |        |       |       |       |         
|--------------------------------|--------------6h7---------------| 
|5---5---5-------5---4-----------|--------------------7-------7---| 
|--------------5---------7-------|5---5---5---------------5-------| 
|----------------------------5---|--------------------------------| 
 
 |       |       |       |        |       |       |       |         
|--------------------------------|------------------------11------| 
|9-------9-------7---8-------9---|--------------------11------11--| 
|--------------9-----------9-----|9-------9---------9-------------| 
|--------------------------------|--------------------------------| 
 
         |       |        |       |       |       |         
|--------------------------------|--------------------------------| 
|----------------7---7-------8---|9-------9-------7---8---9-------| 
|9-------9-----9-----------9-----|------------9---------------9---| 
|--------------------------------|--------------------------------| 
 
 |       |       |       |        |       |       |       |         
|--------------------------------|--------------------------------| 
|5-------5-----5-----4-----------|--------------------------------| 
|------------5-----5-----7-------|-------   T H E  E N D  --------| 
|----------------------------5---|--------------------------------| 
            
Submit corrections


        Age Of Aquarius lessons Hard to play? Try these video lessons and learn fast Age Of Aquarius lessons
        
↑ Back to top | Tablatures and chords for acoustic guitar and electric guitar, ukulele, drums are parodies/interpretations of the original songs. You may use it for private study, scholarship, research or language learning purposes only