» » »

Feeling - Never Be Lonely Tabs

Artists:  A B C D E F G H I J K L M N O P Q R S T U V W X Y Z # 

Never Be Lonely Tabs

(ver. 3) Click to play this song!
Feeling
 Rating:
4/5 (4 votes)


 Never Be Lonely lessons Tabs too difficult? Try these video lessons and learn fast
 
                Not tricky at all, trust me, I worked it out on my own!

Key:

s  = slide from the first note to the next
s^ = just slide up

e|-------------------------------------------------------------------|
B|-------------------------------------------------------------------|
G|-9s7-5-5-----5-----5-----9s7-5-5---------------------5-7-5-7-5-7-9-|
D|---------7s5---7s5---7s5---------7s5-2s5-5-5-5-7-5-7---------------|
A|-------------------------------------------------------------------|
E|-------------------------------------------------------------------|

e|-------------------------------------------------------------------|
B|-13-13-12-10-8-5-8--6-6-5---------s13-13s11-11-11-11s10-10-10-10s8-|
G|--------------------------7-5---5----------------------------------|
D|------------------------------7------------------------------------|
A|-------------------------------------------------------------------|
E|-------------------------------------------------------------------|

e|-------------------------------------------------------------------|
B|-8-8-8s6-6s5s6-----------------------------------------------------|
G|-------------------------------------------------------------------|
D|-------------------------------------------------------------------|
A|-------------------------------------------------------------------|
E|-------------------------------------------------------------------|


..."never be lonely"


See! Easy
            
Submit corrections



        Never Be Lonely lessons Hard to play? Try these video lessons and learn fast Never Be Lonely lessons
        
↑ Back to top | Tablatures and chords for acoustic guitar and electric guitar, ukulele, drums are parodies/interpretations of the original songs. You may use it for private study, scholarship, research or language learning purposes only