» » »

Feeling - Fill My Little World Tabs

Artists:  A B C D E F G H I J K L M N O P Q R S T U V W X Y Z # 

Fill My Little World Tabs

(ver. 2) Click to play this song!
Feeling
 Rating:
4/5 (8 votes)


 Fill My Little World lessons Tabs too difficult? Try these video lessons and learn fast
 
                |-------------|---------------------|
|-------------|--------x-x-15----15-|
|-------12-14-|-12-----x-x-14b16----|
|-------------|---------------------|
|-------------|---------------------|
|-------------|---------------------|


|-------------------------|---------------------|
|-------------------------|--------x-x-15----15-|
|-14p12-11-12p11----12-14-|-12-----x-x-14b16----|
|----------------12-------|---------------------|
|-------------------------|---------------------|
|-------------------------|---------------------|


|-------------------------------|---------------------|
|-------15----15----------------|--------x-x-15----15-|
|-14p12-14b16----14p12-12-12h14-|-12-----x-x-14b16----|
|-------------------------------|---------------------|
|-------------------------------|---------------------|
|-------------------------------|---------------------|


|-------------------------|----------------------|
|-------------------------|--------x-x-15----15--|
|-14p12-11-12p11----12-14-|-12-----x-x-14b16-----|
|----------------12-------|----------------------|
|-------------------------|----------------------|
|-------------------------|----------------------|


|---------------------------||
|-------15----15------------||
|-14p12-14b16----14p12-12\--||
|---------------------------||
|---------------------------||
|---------------------------||
            
Submit corrections



        Fill My Little World lessons Hard to play? Try these video lessons and learn fast Fill My Little World lessons
        
↑ Back to top | Tablatures and chords for acoustic guitar and electric guitar, ukulele, drums are parodies/interpretations of the original songs. You may use it for private study, scholarship, research or language learning purposes only