» » »

Father John Misty - Chateau Lobby #4 (in C for Two Virgins) Chords

Artists:  A B C D E F G H I J K L M N O P Q R S T U V W X Y Z # 

Chateau Lobby #4 (in C for Two Virgins) Chords

(ver. 1) Click to play this song!
Father John Misty
 Rating:
4/5 (4 votes)

 Chateau Lobby #4 (in C for Two Virgins) lessons Tabs too difficult? Try these video lessons and learn fast
 
                key:   C major
 time:  4/4
 tempo: Q=93 bpm


Josh tunes his acoustic guitar to an open C6-tuning (C G C E A C).

               C          Dm         F          G7         Em
             ooo__o     ____oo     ______     ______     ____oo
             ||||||     |||●||     ::::::     ::::::     ||||||
             ||||||     ●●●|||    5●●●●●●    7●●●●●●     ||||||
             |||●●|     ||||||     ||||||     ||||||     |||●||
             ||||||     ||||||     ||||||     ||||||     ●●●|||


Another option of his is tuning down one full step (D G C F A D).

             xxo___     o__ooo     _xooo_     xo_o_o     ______
             ||||||     ||||||     ||||||     ||||||     ||||||
             |||●|●     |●●|||     ||||||     ||●|●|     ●--●●●
             ||||●|     ||||||     ●||||●     ||||||     ||||||
             ||||||     ||||||     ||||||     ||||||     |●●|||



------------------------------------------------------------------------------


                   | F      |

 Verse:            | C      | Dm     | F      | G7     |
                   | C      | Dm     | F      | G7     |


 Chorus:           | F      | F      | G7     | G7  Em |
                   | F      | F      | G7     | G7     | 
                   | G7     | G7     |

 Verse


 Chorus



 Bridge:           | Dm     | Dm     | Em     | Em     |
                   | F      | F      | G7     | G7     |


 Verse:             trumpet-solo


 Chorus            (then end on F)





 trumpet-solo for guitar in standard tuning:
 C                        Dm
|------------------------|---------------------------|
|--13-13-13-13-15~--12-13|---------------------------|
|------------------------|14-------------------------|
|------------------------|---------------------------|
|------------------------|---------------------------|
|------------------------|---------------------------|

 F                        G7
|------------------------|---------------------------|
|---15-15-15-15--13------|17~----------------13~-----|
|--------------------14--|---------12-14-------------|
|------------------------|---------------------------|
|------------------------|---------------------------|
|------------------------|---------------------------|

 C                        Dm
|---12-12-12-12-13-10-12-|---------------------------|
|---13-13-13-13-15-12-13-|13~------------------------|
|------------------------|14~------------------------|
|------------------------|---------------------------|
|------------------------|---------------------------|
|------------------------|---------------------------|

 F                        G7
|---13-13-13-13--12------|15~------15-13-----12~-----|
|---15-15-15-15--13--15--|17~----------------13~-----|
|--------------------14--|---------12-14-------------|
|------------------------|---------------------------|
|------------------------|---------------------------|
|------------------------|---------------------------|



 LYRICS
**********
Emma eats bread and butter
Like a queen would have ostrich and cobra wine
We'll have satanic Christmas Eve [originally: "We'll casually take ecstasy"]
And play piano in the chateau lobby

     I've never done this
     Baby, be gentle
     It's my first time
     I've got you inside
     People are boring
     But you're something else completely
     Damn, let's take our chances

I wanna take you in the kitchen
Lift up your wedding dress someone was probably murdered in
So bourgeoisie to keep waiting
Dating for twenty years just feels pretty civilian

     I've never thought that
     Ever thought that once in my whole life
     You are my first time
     People are boring
     But you're something else I can't explain
     You take my last name

First time, you let me stay the night despite your own rules
You took off early to go cheat your way through film school
You left a note in your perfect script:
'Stay as long as you want', I haven't left your bed since

     I haven't hated all the same things
     As somebody else since I remember 
     What's going on for
     What are you doing with your whole life
     How about forever
            
Submit corrections


        Chateau Lobby #4 (in C for Two Virgins) lessons Hard to play? Try these video lessons and learn fast Chateau Lobby #4 (in C for Two Virgins) lessons
        
↑ Back to top | Tablatures and chords for acoustic guitar and electric guitar, ukulele, drums are parodies/interpretations of the original songs. You may use it for private study, scholarship, research or language learning purposes only