» » »

Farin Urlaub Racing Team - Sonne Bass

Artists:  A B C D E F G H I J K L M N O P Q R S T U V W X Y Z # 

Sonne Bass

(ver. 1) Click to play this song!
Farin Urlaub Racing Team
 Rating:
4/5 (4 votes)


 Sonne lessons Tabs too difficult? Try these video lessons and learn fast
 
                Farin Urlaub - Sonne
Bass Tab



Strophe: x8
G----------------------------------------------------------------------|
D--9999-99-999-9999-7777-77-777-7777------------------5555-55-555-4400-|
A------------------------------------7777-77-777-7755------------------|
E----------------------------------------------------------------------|

Refrain:
G----------------------------------------------------------|
D----0131---0131---3464---3464---1241---1241---5685---5685-|
A--11-----11-----44-----44-----22-----22-----66-----66-----|
E----------------------------------------------------------|


G------------------------------------------------|
D----0131---0131---3464---3464---1241---1241-----|
A--11-----11-----44-----44-----22-----22---------|
E---------------------------------------------2~-|

Strophe: x4

Refrain:
G----------------------------------------------------------|
D----0131---0131---3464---3464---1241---1241---5685---5685-|
A--11-----11-----44-----44-----22-----22-----66-----66-----|
E----------------------------------------------------------|


G----------------------------------------------------------|
D----0131---0131---3464---3464---1241---1241---------------|
A--11-----11-----44-----44-----22-----22--------1241---1241|
E---------------------------------------------22-----22----|


Refrain

Bridge:
G------------------------------------------------|
D------------------------------------------------|
A--11-11-11-1-1-11-11-11-11-1-1-11-11-11-11-1-1--|
E------------------------------------------------|

G-------------------------------------------------------|
D-------------------------------------------------------|
A--11-11-11-11-1-1--11-11-11-11-1-1--11-11-11-11-1-1-11-|
E-------------------------------------------------------|

G-------------------------------------------------------------------| x3
D--888888888888-666666666666----------------------------------------|
A----------------------------888888888888-999999999999--------------|
E-------------------------------------------------------------------|

G-------------------------------------------------------|
D-------------------------------------------------------|
A-------------------------------------------------------|
E--66666666666-44444444444-111111111111-222222xx2xx2----|

G---------------------------------------------------------|
D---------------------------------------------------------|
A-----------------------------------------7~----7~----7~--|
E--666666666666-444444444444-111111111111-0~----0~----0~--|

Refrain: x2

Ende
            
Submit corrections



        Sonne lessons Hard to play? Try these video lessons and learn fast Sonne lessons
        
↑ Back to top | Tablatures and chords for acoustic guitar and electric guitar, ukulele, drums are parodies/interpretations of the original songs. You may use it for private study, scholarship, research or language learning purposes only