» » »

Farin Urlaub Racing Team - Ok Bass

Artists:  A B C D E F G H I J K L M N O P Q R S T U V W X Y Z # 

Ok Bass

(ver. 3) Click to play this song!
Farin Urlaub Racing Team
 Rating:
4/5 (4 votes)


 Ok lessons Tabs too difficult? Try these video lessons and learn fast
 
                *********************************
* Farin Urlaub - Ok     by FLX  *
*********************************


Guitar Intro:
|----|


Pre-Verse:
g|------------------------------------------------|
d|------------------------------------------------|
A|------------3-3-3-3-3-------------2-2-2-2-2-----|
E|-0-0-0-0-0-------------3-3-3-3-3----------------|

g|-------------------------------|
d|-------------------------------|
A|------------3-3-3-3-3--3-------|
E|-0-0-0-0-0---------------0-3---|


1. Verse:
g|------------------------------------------------|
d|------------------------------------------------|
A|------------3-3-3-3-3-------------2-2-2-2-2-----|
E|-0-0-0-0-0-------------3-3-3-3-3----------------|


Chorus:
g|------------------------------------------------|
d|------------------------------------------------|
A|-7--7--7--7--7-5--5--5--5-7-5--3--3----3-3h5h3--|
E|------------------------------------------------|

1.Bridge:
g|------------------------------------------|
d|------------------------------------------|
A|-7-7--7--5-5--3-3--3---3-3h5h3------------|
E|------------------------------------------|


Pre-Verse again:


2. Verse:
g|------------------------------------------------------|
d|------------------------------------------------------|
A|------------3--3--3--3--3-------------2--2--2--2--2---|
E|-0-0-0-0-0------------------3-3-3-3-3-----------------|


Pre-Chorus (normal playing again) :
g|------------------------------------------------|
d|------------------------------------------------|
A|------------3-3-3-3-3-------------2-2-2-2-2-----|
E|-0-0-0-0-0-------------3-3-3-3-3----------------|


Chorus:
g|------------------------------------------------|
d|------------------------------------------------|
A|-7--7--7--7--7-5--5--5--5-7-5--3--3----3-3h5h3--|
E|------------------------------------------------|

2. Bridge (3x):
g|------------------------------------------------|
d|------------------------------------------------|
A|------------------------------------------------|
E|-0--0-0-5-5-5-5-1--1-1--1-1---------------------|


g|-----------------------------------0-------0------|
d|---------------------------------2-------0--------|
A|-----------------------5--5-5--3-----3-2----------|
E|-5-5-5-5-5-5-5-5-3-3-3-----------------------3-5--|


Outro:
g|-------------------------------------------------------------------------|
d|-----------------------------5-4-0---------------------------------------|
A|-------------------5--5--5-5-------3--3--3-2-3--3--3-2-3--3--3-3-3-2-----|
E|-0--0--0-0-3-0--0----------------------------------------------------3-2-|


g|-------------------------------------------------------------------------|
d|-----------------------------5-7-5---------------------------------------|
A|-------------------5--5--5-5-------3--3--3-2-3--3--3-2-3--3--3-3-3-2-----|
E|-0--0--0-3-0--3-0----------------------------------------------------3-2-|


g|----------------------------------------------------------------------------|
d|-----------------------------4-5-4------------------------------------------|
A|-------------------5--5--5-5-------3--3--3-2-3--3--3-2-3--3--3-3-3-22-------|
E|-0--0--0-3-0--3-0-----------------------------------------------------33-22-|


g|--------------------------------------------------------------------------|
d|-----------------------------7-5-4----------------------------------------|
A|-------------------5--5--5-5-------3--3--3-2-3--3--3-2-3--3--3-3-3-2------|
E|-0--0--0-0-3-0--0-----------------------------------------------------3-2-|
            
Submit corrections



        Ok lessons Hard to play? Try these video lessons and learn fast Ok lessons
        
↑ Back to top | Tablatures and chords for acoustic guitar and electric guitar, ukulele, drums are parodies/interpretations of the original songs. You may use it for private study, scholarship, research or language learning purposes only