» » »

Fall Out Boy - The Pros And Cons Of Breathing Bass

Artists:  A B C D E F G H I J K L M N O P Q R S T U V W X Y Z # 

The Pros And Cons Of Breathing Bass

(ver. 3) Click to play this song!
Fall Out Boy
 Rating:
4/5 (4 votes)


 The Pros And Cons Of Breathing lessons Tabs too difficult? Try these video lessons and learn fast
 
                tuning: standard (e,a,d,g)

alright nothing special its a pretty easy song here it is

intro
|---------------------------------|
|---------------------------------|
|--------2~-----------------2~----|
|4~--0~------2~-0-2-4~--0~------0x|

verse 1
|------------------------------------|
|------------------------------------|
|------------------------------------|   x2
|44444444-00000000-2222222-0000-2222-|

(16th notes)
|-------------------------------------------|
|-------------------------------------------|
|-------------------------------------------|
|4444444~---444-00000000-22222222-0000-2222-|

pre chorus 1
|-------------------------------------|
|-------------------------------------|
|-------------------------------------|
|44444444-4/6666666-00000000-00000000-|

chorus
|------------------------------------------------------------------|
|------------------------------------------------------------------|
|------------------------------------------------------------------|
|4444x-0~0~000-2~2~222-0000-2222-4444x-4/6666666-00000000-00000000-|

"stood on my roof..."
|---------------------------------------------------------------------|
|---------------------------------------------------------------------|
|------------------22222222-4444-6666------------------22-222-444-666-|
|00000000-00000000--------------------0~00~000-000-000----------------|

"hide the details"
|----------------------------------|
|----------------------------------|
|----------22222222-4444-6666------|
|000~-000~--------------------0~---|

bridge
|---------------------------------------|
|---------------------------------------|
|-----------------------------2~--------|
|4~-------------------4~--0~------2~-0x-|

verse 2
|-----------------------------------------------------------------|
|-----------------------------------------------------------------|
|-----------------------------------------------------------------|
|44444444-00000000-22222222-0000-2222-44444444-4/6666666-00000000-|

pre chorus 2 (same as drums)
|------------------|
|------------------|
|------------------|
|0-0-0000-0-0-0000-|

transition
|----------------|
|----------------|
|----------------|
|4~------4~---4\-|

"wish that i was as invisible as..."
|-------------------------------------------------------------------------|
|-------------------------------------------------------------------------|
|-------------------------------------------------------------------------|   x2
|44444444-66666666-77777777-00000000-44444444-4/6666666-77777777-00000000-|

chorus variation
|------|
|------|
|------|   x2
|4~-4\-|

|---------------------------------------------------------------------------|
|---------------------------------------------------------------------------|
|---------------------------------------------------------------------------|
|44444444-00000000-22222222-0000-0/222-44444444-4/6666666-00000000-22222222-|

|--------------------------------------------------------------------------------|
|--------------------------------------------------------------------------------|
|--------------------------------------------------------------------------------|
|44444444-00000000-22222222-0000-0/222-44444444-4/6666666-00000000-2222222-4~-4\-|

order:
intro
verse 1
pre chorus 1
chorus
bridge
verse 2
pre chorus 2 
chorus
transition
chorus variation


well thats it really if you'd rate it that'd be nice if not whatever
            
Submit corrections



        The Pros And Cons Of Breathing lessons Hard to play? Try these video lessons and learn fast The Pros And Cons Of Breathing lessons
        
↑ Back to top | Tablatures and chords for acoustic guitar and electric guitar, ukulele, drums are parodies/interpretations of the original songs. You may use it for private study, scholarship, research or language learning purposes only