» » »

Fall Out Boy - Golden Tabs

Artists:  A B C D E F G H I J K L M N O P Q R S T U V W X Y Z # 

Golden Tabs

(ver. 3) Click to play this song!
Fall Out Boy
 Rating:
4/5 (4 votes)


 Golden lessons Tabs too difficult? Try these video lessons and learn fast
 
                
REAL FANS SUPPORT BANDS BY PURCHASING THEIR CD'S!!!


Tuning: Standard (5-8 cents down to match the link!!)

Capo 1 (chords are relative to the capo!)


° = hold note
^ = vibrate
p = pull off
h = hammer on
/ = slide up
\ = slide down
x = mute


Here is a link to a great cover. Unfortunately poor sound quality but its
Pretty much what i tabbed out ☺

READ:
This tab contains the correct chords for ACOUSTIC PLAY, patricks vocals as well as my own
 interpretation of the song. So dont attempt to play it on
piano, the chords are very basic since I dont care about names and maj7’s...
Also  ::: THIS TAB REQUIRES FINGER-PICKING :::

And dont forget the CAPO!

Enjoy!






Chords:
  Cmaj7 G    B7/D#     E   Em F#/D D  D/B   B7/D#
E------------0---------0---0----------------2--------------------|
B---0---0----0---4-----0---0---3---3—-(0)---0---7----------------|
G---0---0----0-o-2-----1---0---2---2---2----2-o-4----------------|
D---2---0----1-r-1-----2---2---0---0---0----1-r-4----------------|
A---3---x----2---2-----2---2---0--(0)--2----2---6----------------|
E-------3--------------0---0---2---------------------------------|
            Verse 1                        Verse 2


Legend for strumming:
E-------------------------------------------------------|
B------0--------------0-------0°--------0---------------|
G-----0-------------0---------0°--------0---------------|
D----2------------2--------------------(2)--------------|
A---3-----------3-------------3°--------3---------------|
E-------------------------------------------------------|
 Slow strumm | each picked | hold em | add () if you want to, sound good as well
--> most notes that are kept holding are the chords main notes. Dont worry about it too 
much, its mostly for fancy purposes ;)



Intro:
    Cmaj7               Cmaj7
E---------------------------------------------------|
B---0°--0-0-0-0-0-0-0---0°--0-0-0-0-0-0-0-----------|
G---0°--0-0-0-0-0-0-0---0°--0-0-0-0-0-0-0-----------|
D—-(2°)----------------(2°)-------------------------|
A---3°------------------3°--------------------------|
E---------------------------------------------------|


Verse I: Hold all the notes
    Cmaj7                   G
E-----------------------------------------------------------|
B------0°------0------------------0°------------------------|
G-----0°-----0-----0--------2°---------2h4-2-0--------------|
D----2°----2-----------------------------------0------------|
A---3°-----------3---3--------------------------------------|
E---------------------------3°--3---3-------------3---------|

    Cmaj7                 G         Am       C/B
E--------------------------------------------------------|
B---0°--1-3-------------------0---------0----------------|
G---0°---------0-2---0----0-2---------0--------0---------|
D--------------------------------------------------------|
A---3°-------3-----3----------------0--------2-----------|
E-------------------------3------------------------------|

    Cmaj7                 G
E-----------------------------------------------------|
B---0°--0-0-0-0-----------------3°--------0°----------|
G---0°--0-0-0---2-0------------------2°---------------|
D-------------------2-----0°--------------------------|
A---3°------------------------------------------------|
E-------------------------3°--3----3----3---3---------|

    B7/D#                E
E-----------0°-------------------0°-------------|
B---0°--------------0----0°---------------------|
G---0°----0-------0-h1---1°----1------1---------|
D-------1°-------------------2°-----2-----------|
A---2°----------2-------------------------------|
E------------------------0°---------------------|


Verse II:  Hold all notes till B7!!
        C                      G
E---0----------0-----------0---------0-----------------|
B-----3----------3-----------3-----------3-------------|
G---------0----------0-----------0---------------------|
D------------------------------------------------------|
A-------3----------3-----------------------------------|
E------------------------------3-------3---3-----------|

        C                      G
E---0----------0-----------0---------0------3-------------|
B-----3----------3-----------3-------------3--------------|
G---------0----------0-----------0--------0---------------|
D---------------------------------------------------------|
A-------3----------3--------------------------------------|
E------------------------------3-------3-----(3)----------|

        C
E---0----------0---------------------------------------------|
B-----3----------3-------3-------3-1-0-1--1h3-1-0-1----------|
G---------0----------0-----------0---------------------------|
D------------------------------------------------------------|
A-------3----------3-------3---------------------------------|
E--------------------------------3---------------------------|

    B7/D#                    E
E------------2°------------------------0°-----------------------|
B---0°----0°--------0--------0°------0----------------0---------|
G---0°------------------0----0h1°-----------------2h4-----------|
D-------1°------------1------------2°------2--------------------|
A---2°----------------------------------------------------------|
E----------------------------0°---------------------------------|


Chorus:
    Em              F#/D       G           D(/F#)
E--------------------------------------------------------------|
B------------------------0-1---0°-------------3--3-------------|
G---0°--------0--------2°--------2-0----------2--2-------------|
D---2°----2h4-------0°---------------2-----0°-------0----------|
A--------------------------------------------------------------|
E---0°--0-----------2°---------3°---------(2°)-----------------|

    Em          F#/D       G          D
E-----------------------------------------------------------|
B--------------------0-1---0°-----3---3°------3-------------|
G---0°----------0-2--------0°-----0---2°----2---------------|
D------0-2-4--------------------------0°--0-----------------|
A-----------------------------------------------------------|
E---0°----------2°---------3°--3----------------------------|

       Em         F#/D          G             D
E------0°-------------------------------------------------------|
B-----------3-1---0°-------0h1—-0°------------------------------|
G---4-----0°---------2°---------------2-0-----2h4-2-------------|
D-----------------------0°--------------------0°----------------|
A----------------------------------------------------5-3--------|
E------0°---------2°------------3°--3---------------------------|

    D/B                     Cmaj7
E----------------------------------------------|
B---------------------------------0°-----------|
G-------0h2°--0h2-0-------------0°-------------|
D-----0°------------0---------2°---------------|
A---2°----------------2-----3°-----------------|
E----------------------------------------------|


The song is just these parts played twice in the same order.



And that’s it! Please rate, comment and correct me!

Cheers...
            
Submit corrections



        Golden lessons Hard to play? Try these video lessons and learn fast Golden lessons
        
↑ Back to top | Tablatures and chords for acoustic guitar and electric guitar, ukulele, drums are parodies/interpretations of the original songs. You may use it for private study, scholarship, research or language learning purposes only