» » »

Fall Out Boy - Coffees For Closers Bass

Artists:  A B C D E F G H I J K L M N O P Q R S T U V W X Y Z # 

Coffees For Closers Bass

(ver. 1) Click to play this song!
Fall Out Boy
 Rating:
4/5 (4 votes)


 Coffees For Closers lessons Tabs too difficult? Try these video lessons and learn fast
 
                -------------------------------------------------------------------------------
			     (Coffee's For Closers) -  Fall Out Boy
-------------------------------------------------------------------------------

Tuning: standard

Intro bass doesn't come in until six seconds
G|----------------------------------|
D|----------------------------------|
A|------------------------------4-2-|
E|-000000000000000000000000000------| x2

Verse "I can't explain a thing."
G|-----------------------------------|
D|22222222-11111111------------------|
A|------------------4444444444444422-|
E|-----------------------------------|x4

pre-chorus "Oh baby when they made me..."
G|-------------------------------------------------------------------------|
D|-------------------------------------------------------------------------|
A|0-000000----------44444444-22222222-00000000----------4444-2222-00000000-|
E|---------22222222----------------------------22222222--------------------|

"Fly your cameras in the air..."
G|------------------------|
D|------------------------|
A|-----------0~----2~---2-|
E|--0~--------------------|

Chorus "I will never believe in anything again..."
G|----------------------------------------------------------------------|
D|------------------2222-1111-------------------------------------------|
A|44444444-00000000-----------4444-2222-00000000-22222222-44444444444442|
E|----------------------------------------------------------------------|

"Oh, change will come!"
G|-------------------------------------------|
D|-------------------------------------------|
A|-0--2--4----0--2--4-4-2--00000000-22222222-|
E|-------------------------------------------|

straight into intro x2
verse x4
pre-chorus x1

Chorus "I will never believe in anything again..."
G|----------------------------------------------------------------------|
D|------------------2222-1111-------------------------------------------|
A|44444444-00000000-----------4444-2222-00000000-22222222-44444444444442|
E|----------------------------------------------------------------------|

"Oh, change will come!"
G|-------------------------------------------|
D|-------------------------44444444----------|
A|-0--2--4----0--2--4-4-2-----------22222222-|
E|-------------------------------------------|

bridge "fly your cameras in the air...cause i just don't care.."
G|----------------------------------------|
D|------------------------------------2---|
A|-00000000-------2-2-22-44444444-2h4-----|
E|----------22-2--------------------------|x4

"I will never believe in anything again."
G|--------------------------------------------------|
D|--------------------------------------------------|
A|------------444444444444444--0~---2--4~----0--2-4-|
E|-0~-----------------------------------------------|

Chorus "I will never believe in anything again..."
G|----------------------------------------------------------------------|
D|------------------2222-1111-------------------------------------------|
A|44444444-00000000-----------4444-2222-00000000-22222222-44444444444442|
E|----------------------------------------------------------------------|

"Oh, change will come!"
G|-------------------------------------------|
D|-------------------------------------------|
A|-0--2--4----0--2--4-4-2--00000000-22222222-|
E|-------------------------------------------|

repeat intro until end

G|-----------------|
D|-----------------|
A|-----------------|
E|-0--0--0--0--0~--|


|
            
Submit corrections



        Coffees For Closers lessons Hard to play? Try these video lessons and learn fast Coffees For Closers lessons
        
↑ Back to top | Tablatures and chords for acoustic guitar and electric guitar, ukulele, drums are parodies/interpretations of the original songs. You may use it for private study, scholarship, research or language learning purposes only