» » »

Fall Out Boy - Chicago Is So Two Years Ago Bass

Artists:  A B C D E F G H I J K L M N O P Q R S T U V W X Y Z # 

Chicago Is So Two Years Ago Bass

(ver. 1) Click to play this song!
Fall Out Boy
 Rating:
4/5 (4 votes)


 Chicago Is So Two Years Ago lessons Tabs too difficult? Try these video lessons and learn fast
 
                ok really quick...if there's an (X) next to a fret number that means i want you guys to 
the string after you strum it...it's not a big deal but it definately sounds 
to dumb it down as much as i could
this is my first tab...i was really p**sed b/c it was wrong so i had to fix it...enjoy

INTRO 1X

G----------------------------------------|----------------------------------|
D----------------------------------------|----------------------------------|
A----------------------------------------|----------------------------------|
E-1-1-1-1-1-3-3-3-3-3-0-0-0-0-0-1-1-1-1-1|1-1-1-1-1-3-3-3-3-3-0-0-0-0-0-1---|

VERSE 4X
G---------------------------------------------------------------------------|
D---------------------------------------------------------------------------|
A------3(X)-------------3(X)------------------------------------------------|
E-1(X)------3(X)---0-0-------3(X)--1(X)-------------------------------------|

PRE-CHORUS 3X
G---------------------------------------------------------------------------|
D---------------------------------------------------------------------------|
A---------------------------------------------------------------------------|
E-1-1-1-1-1-1-1-1-3-3-3-3-3-3-3-3-0-0-0-0-0-0-0-0-1-1-1-1-1-1-1-1-----------|

end on...
G---------------------------------------------------------------------------|
D---------------------------------------------------------------------------|
A---------------------------------------------------------------------------|
E-1-1-1-1-1-1-1-1-3-3-3-3-3-3-3-3-0-0-0-0-0-0-0-0---------------------------|

CHORUS 3X
G---------------------------------------------------------------------------|
D---------------------------------------------------------------------------|
A-----------------3-3-------------------------------------------------------|
E-55(X)-5(X)-5(X)------11(X)-1(X)-1(X)-3-3----------------------------------|

CHORUS CONT'D 1X
G---------------------------------------------------------------------------|
D---------------------------------------------------------------------------|
A-------22(X)---------------------------------------------------------------|
E-55(X)-------11(X)--1-1-1-1-1-1-1-1----------------------------------------|

BRIDGE 3X
G---------------------------------------------------------------------------|
D---------------------------------------------------------------------------|
A---------------------------------------------------------------------------|
E-1-1-1-1-1-1-1-1-3-3-3-3-3-3-3-3-0-0-0-0-0-0-0-0-0-0-0-0-0-0-0-0-----------|

G---------------------------------------------------------------------------|
D---------------------------------------------------------------------------|
A---------------------------------------------------------------------------|
E-1-1-1-1-1-1-1-1-3-3-3-3-3-3-3-3-0-0-0-0-0-0-0-0-0(X)----------------------|

...on the last chorus everything is the same but when the cont'd part comes up play the 
a little slower as the song ends
            
Submit corrections



        Chicago Is So Two Years Ago lessons Hard to play? Try these video lessons and learn fast Chicago Is So Two Years Ago lessons
        
↑ Back to top | Tablatures and chords for acoustic guitar and electric guitar, ukulele, drums are parodies/interpretations of the original songs. You may use it for private study, scholarship, research or language learning purposes only