» » »

Fall Out Boy - Beat It Bass

Artists:  A B C D E F G H I J K L M N O P Q R S T U V W X Y Z # 

Beat It Bass

(ver. 3) Click to play this song!
Fall Out Boy
 Rating:
4/5 (4 votes)


 Beat It lessons Tabs too difficult? Try these video lessons and learn fast
 
                ----------------------------------------------------------------------------
			     BEAT IT - Fall Out Boy
----------------------------------------------------------------------------


Tuning: Standard 5-String

Intro:x6 (listen closely for timing, goes with bass drum)
G|----|
D|----|
A|----|
E|----|
B|-3/-|

Intro Continued:
G|-------------------------------------------|
D|-------------------------------------------|
A|----------8-5-7-5------------8-5-7-5-------|
E|--------5---------8-8------5---------8-8-8-|
B|1-1-3-6----------------3-6-----------------|

Verse: X2
G|-------------------------------------------|
D|-------------------------------------------|
A|-------------------------------------------|
E|------888/------888/--666--888--101010-888-|
B|-333-------333-----------------------------|

Chorus:X3
G|----------------------------------------|
D|----------------------------------------|
A|-------8-5-7-5------------8-5-7-5-------|
E|-----5---------8-8------5----------8-88-|
B|-3-6----------------3-6-----------------|

Verse: X2
G|-------------------------------------------|
D|-------------------------------------------|
A|-------------------------------------------|
E|------888/------888/--666--888--101010-888-|
B|-333-------333-----------------------------|


Chorus:X3
G|----------------------------------------|
D|----------------------------------------|
A|-------8-5-7-5------------8-5-7-5-------|
E|-----5---------8-8------5----------8-88-|
B|-3-6----------------3-6-----------------|

Interlude: X3
G|---------------------|
D|---------------------|
A|---------------------|
E|---------------------|
B|-333X-333~-333X-333X-|

Interlude Cont.
G|---------------------|
D|---------------------|
A|---------------------|
E|---------------------|
B|-333X-333~-333X-333~-|

Solo: X3
G|-----------------------------------------|
D|-----------------------------------------|
A|-----------------------------------------|
E|------888------888--666--888--101010-888-|
B|-333-------333---------------------------|

Chorus:X8
G|----------------------------------------|
D|----------------------------------------|
A|-------8-5-7-5------------8-5-7-5-------|
E|-----5---------8-8-------5----------8-8-|
B|-3-6----------------3-6-----------------|

/=slide down
x=palm mute
~=let ring
            
Submit corrections



        Beat It lessons Hard to play? Try these video lessons and learn fast Beat It lessons
        
↑ Back to top | Tablatures and chords for acoustic guitar and electric guitar, ukulele, drums are parodies/interpretations of the original songs. You may use it for private study, scholarship, research or language learning purposes only