» » »

Fall Out Boy - Bang The Doldrums Bass

Artists:  A B C D E F G H I J K L M N O P Q R S T U V W X Y Z # 

Bang The Doldrums Bass

(ver. 2) Click to play this song!
Fall Out Boy
 Rating:
4/5 (4 votes)


 Bang The Doldrums lessons Tabs too difficult? Try these video lessons and learn fast
 
                \ = Slide down fretboard
r = let ring

(I)
G|--------------------------------------------|
D|--------------------------------------------|
A|---------------444---------------44-(\4)*---| (*Last time)
E|-6-4-22-2-44-4-----6-4-22-2-44-4------------|

II)
G|-----------------------|
D|-----------------------|
A|-----------------------|
E|-\8 666-222-444-222----|

OR

 (II)
G|---------------------|
D|---------------------|
A|----111--------------|
E|-\8-----222-444-222--|

(III)
G|--------------------------------------------|
D|--------------------------------------------|
A|--------------------------------------------|
E|-66-66-22-22-44-44-44-66-66-22-22-444444444-|

(IV)
G|------------------------------------------------------------------|
D|------------------------------------------------------------------|
A|-44444444----------44444444---------------------------------------|
E|----------55555555----------6-4-22-5555555-2-4-66-2222222-4444444-|

(V)
G|----------|
D|----------|
A|-1--------|
E|---2-4-2--|

OR

G|----------|
D|----------|
A|----------|
E|-6-2-4-2--|

(VI)
G|----------------------------------------|
D|----------------------------------------|
A|--------------------4444-3333-1111------|
E|-222222222-44444444----------------1111-|

G|-----------------------------------------------------------------|
D|-----------------------------------------------------------------|
A|--------------------------------111111111----------(4r**)-| (----| 2nd time through)
 E|-222222222-4444444444-(111111111-----------6-4*)----------| (*1-|st Time only)

(VII)
G|-----------------------------------------|
D|-----------------------------------------|
A|-----------------------------------------|
E|-6-4-22-55555555-2-4-66-2222222-4--------|

ORDER:
(I) = 2x
 Guitar Break
(II) = 4x
(III)= 1x
(IV) = 1x
(I) = 2x
Guitar Break
(II) = 4x
(III) = 1x
(IV) = 1x
(I) = 2x
(V) = 8x
(VII) = 2x
 Small break
(VI) = 1x
(I) = 8x

I hope you enjoy it took me atleast a hole night perfecting this tab :D
            
Submit corrections



        Bang The Doldrums lessons Hard to play? Try these video lessons and learn fast Bang The Doldrums lessons
        
↑ Back to top | Tablatures and chords for acoustic guitar and electric guitar, ukulele, drums are parodies/interpretations of the original songs. You may use it for private study, scholarship, research or language learning purposes only