» » »

Falling In Reverse - Tragic Magic Bass

Artists:  A B C D E F G H I J K L M N O P Q R S T U V W X Y Z # 

Tragic Magic Bass

(ver. 1) Click to play this song!
Falling In Reverse
 Rating:
4/5 (4 votes)


 Tragic Magic lessons Tabs too difficult? Try these video lessons and learn fast
 
                Intro 0:02
F|-------------------------------------------------|
C|-------------------------------------------------|
G|-8\--------1(x8)-1-1-0-1-------4(x8)----------33-|
C|----3(x16)---------------5(x8)--------3(x12)-----|

F|------------------------------------------------|
C|------------------------------------------------|
G|--------1(x8)-1-1-0-1-------4(x8)--------00--33-|
C|-3(x16)---------------5(x8)-------3(x8)---------|

Verse 0:28
F|---------------------------------------------------------------------|
C|---------------------------------------------------------------------|
G|-5-------1---0----44-44-5(x16)--------1(x16)-0(x8)-/88887777-1--xxxx-|
C|-----3-------------------------3(x16)--------------------------------|

Chorus 0:55
F|------------------------------------------|
C|------------------------------------------|
G|--------1(x12)-0-1-------4(x8)---------33-|
C|-3(x16)------------5(x8)-------3(x12)-----|

F|---------------------------------------------|
C|---------------------------------------------|
G|--------1(x12)-0-1-------4(x8)--------00--33-|
C|-3(x16)------------5(x8)-------3(x8)---------|

La La La 1:21
F|----------------------------------------------|
C|----------------------------------------------|
G|---------1(x15)---------4(x7)---------0000033-|
C|-3(x15)----------5(x7)---------3(x7)----------|

Verse 1:33
F|----------------------------------------------------------------------|
C|----------------------------------------------------------------------|
G|-5-------1---0---444-------------------1(x16)-0(x8)-/88887777-1--xxxx-|
C|-----3--------------/11\-0(x16)-3(x16)--------------------------------|

Chorus 2:00
F|------------------------------------------|
C|------------------------------------------|
G|--------1(x12)-0-1-------4(x8)---------33-|
C|-3(x16)------------5(x8)-------3(x12)-----|

F|---------------------------------------------|
C|---------------------------------------------|
G|--------1(x12)-0-1-------4(x8)--------00--33-|
C|-3(x16)------------5(x8)-------3(x8)---------|

La La La 2:25
F|-----------------------------------------------------------------|
C|-----------------------------------------------------------------|
G|-----------------11------------------------------------------8-\-|
C|-33------------------------------55--------------33--------------|

F|-----------------------------------------------------------------|
C|-----------------------------------------------------------------|
G|-----------------11------------------------------------------8-\-|
C|-33------------------------------55--------------33--------------|

Breakdown 2:49
F|-----------------------------------------------------------------------------------|
C|-----------------------------------------------------------------------------------|
G|---------------------1--1111111-1--11-11-------------4-4--44-44--------------------|
C|-3--3333333-3--33-33---------------------5-55-555555------------3--3333333-3-3--1~~|

F|---------------------------------------------------------------------------------|
C|---------------------------------------------------------------------------------|
G|---------------------1~~1111111~1~~11~11~----------4r4r-44r44r-------------------|
C|-3~~3333333~3~~33~33~--------------------5~~555555~-----------3~~3333333~3~3~~1~~|

Chorus 3:15
F|-----------------------------------------------------------------------------------|
C|-----------------------------------------------------------------------------------|
G|---------------------1--1111111-1--11-11-------------4-4--44-44--------------------|
C|-3--3333333-3--33-33---------------------5-55-555555------------3--3333333-3-3--1~~|

F|-----------------------------------------------------------------------------------|
C|-----------------------------------------------------------------------------------|
G|---------------------1--1111111-1--11-11-------------4-4--44-44--------------------|
C|-3--3333333-3--33-33---------------------5-55-555555------------3--3333333-3-3--1~~|

F|---------------------------------------------------------------------------------|
C|---------------------------------------------------------------------------------|
G|---------------------1----------1--------------------4---------------------------|
C|-3----------3----------------------------5----------------------3----------------|
            
Submit corrections



        Tragic Magic lessons Hard to play? Try these video lessons and learn fast Tragic Magic lessons
        
↑ Back to top | Tablatures and chords for acoustic guitar and electric guitar, ukulele, drums are parodies/interpretations of the original songs. You may use it for private study, scholarship, research or language learning purposes only