» » »

Falling In Reverse - The Drug In Me Is You Bass

Artists:  A B C D E F G H I J K L M N O P Q R S T U V W X Y Z # 

The Drug In Me Is You Bass

(ver. 3) Click to play this song!
Falling In Reverse
 Rating:
4/5 (4 votes)


 The Drug In Me Is You lessons Tabs too difficult? Try these video lessons and learn fast
 
                F|-----------------------------------------------------------------|
C|-----------------------------------------------------------------|
G|-----------------------------5-\-1-1-----------------------------|
C|-0-----------------------------------------------------------10\-|

F|-----------------------------------------------------------------|
C|-----------------------------------------------------------------|
G|---------------------------------1---------------0-0-0-0-0-------|
C|-0---------------------------------------------------------------|

F|-----------------------------------------------------------------|
C|-----------------------------------------------------------------|
G|-----------------0-0-0-0-0-0-0-0-1-1-1-1-1-1-1-1---------------4-|
C|-0-0-0-0-0-0-0-0---------------------------------3-3-3-3-2-3-2---|

F|-----------------------------------------------------------------|
C|-----------------------------------------------------------------|
G|---------------------------------1-1-1-1-1-1-1-1-0-0-------------|
C|-0-0-0-0-0-0-0-0-2-2-2-2-2-2-2-2-------------------------5-5-----|

0:28
F|-----------------------------------------------------------------|
C|-------3-2-3-2-0-------3-2-3-2-0-------3-2-3-2-0-----------------|
G|---------------------------------1---------------0-----000-------|
C|-0---------------0-----------------------------------------5-3-2-|

F|-----------------------------------------------------------------|
C|-------3-2-3-2-0-------3-2-3-2-0-------3-2-3-2-0-----------------|
G|---------------------------------1---------------0---------------|
C|-0---------------0-----------------------------------------------|

0:40
F|-----------------------------------------------------------------|
C|-------332-3-2-0-------332-3-2-0-------332-3-2-0-----------------|
G|---------------------------------1---------------0-----000-------|
C|-0---------------0-----------------------------------------5-3-2-|

F|-----------------------------------------------------------------|
C|-------332-3-2-0-------332-3-2-0---------------------------------|
G|---------------------------------1---1---1---1---0---------------|
C|-0---------------0-----------------------------------------------|

0:54
F|------------------------------------------------------------------|
C|o-----------------------------------------------------------------|
G|o---------------------------------5-5-5-5-5-5-5-5-5-5-5-5-5-5-5-5-|
C|--3-3-3-3-3-3-3-3-3-3-3-3-3-3-3-3---------------------------------|

F|------------------------------------------------------------------|
C|---------------------------------------------------------0-0-2-2-o|
G|-0-0-0-0-0-0-0-0-0-0-0-0-0-0-0-0-1-1-1-1-1-1-1-1-1-1-3-3---------o|
C|------------------------------------------------------------------|

F|-----------------------------------------------------------------|
C|-----------------------------------------------------------------|
G|-----------------0-0-0-0-0-0-0-0-1-1-1-1-1-1-1-1-----------------|
C|-0-0-0-0-0-0-0-0---------------------------------3-3-3-3-2-------|

1:27
F|-----------------------------------------------------------------|
C|-------3-2-3-2-0-------3-2-3-2-0-------3-2-3-2-0-----------------|
G|---------------------------------1---------------0-----000-------|
C|-0---------------0-----------------------------------------5-3-2-|

F|-----------------------------------------------------------------|
C|-------3-2-3-2-0-------3-2-3-2-0-------3-2-3-2-0-----------------|
G|---------------------------------1---------------0---------------|
C|-0---------------0-----------------------------------------------|

1:40
F|------------------------------------------------------------------|
C|-------3-2-3-2-0-------332-3-2-0-------332-3-2-0------------------|
G|---------------------------------1---------------0-000-0-00-------|
C|-0---------------0-000-------------------------------------553322-|

F|-----------------------------------------------------------------|
C|-------3-2-3-2-0-------332-3-2-0-------332-3-2-0-----------------|
G|---------------------------------1---------------0-000-0-0-------|
C|-0---------------0-000-------------------------------------------|

1:54
F|------------------------------------------------------------------|
C|o-----------------------------------------------------------------|
G|o---------------------------------5-5-5-5-5-5-5-5-5-5-5-5-5-5-5-5-|
C|--3-3-3-3-3-3-3-3-3-3-3-3-3-3-3-3---------------------------------|

F|------------------------------------------------------------------|
C|---------------------------------------------------------0-0-2-2-o|
G|-0-0-0-0-0-0-0-0-0-0-0-0-0-0-0-0-1-1-1-1-1-1-1-1-1-1-3-3---------o|
C|------------------------------------------------------------------|

2:20
F|-----------------------------------------------------------------|
C|-----------------------------------------------------------------|
G|---------------------------------1-1-1-1-1-1-1-1---------0---0---|
C|-0-0-0-0-0-0-0-0-2-2-2-2-2-2-2-2-----------------3-3-3-3---------|

F|-----------------------------------------------------------------|
C|-----------------------------------------------------------------|
G|---------------------------------1-1-1-1-1-1-1-1-0-0-------------|
C|-0-0-0-0-0-0-0-0-2-2-2-2-2-2-2-2-------------------------5-5-----|

2:33
F|-----------------------------------------------------------------|
C|-----------------------------------------------------------------|
F|-----------------0-0-------------1-1-----------------------------|
C|-0-0---------------------------------------------5-5---------10\-|

F|-----------------------------------------------------------------|
C|-----------------------------------------------------------------|
F|-----------------0-0-------------1-1-----------------------------|
C|-0-0---------------------------------------------5-5-----7-7-\---|

2:47
F|-----------------------------------------------------------------|
C|-----------------------------------------------------------------|
G|---------------------------------5-5-5-5-5-5-5-5-5-5-5-5-5-5-5-5-|
C|-3-3-3-3-3-3-3-3-3-3-3-3-3-3-3-3---------------------------------|

F|-----------------------------------------------------------------|
C|---------------------------------------------------------0-0-2-2-|
G|-0-0-0-0-0-0-0-0-0-0-0-0-0-0-0-0-1-1-1-1-1-1-1-1-1-1-3-3---------|
C|-----------------------------------------------------------------|

3:00
F|-----------------------------------------------------------------|
C|-----------------------------------------------------------------|
G|-----------------------------3-3---------------------------------|
C|-3-3-3-3-3-3-3-3-3-3-2-2-0-0-----0-0-0-0-0-0-0-0-0-0-0-0-0-0-0-0-|

F|-----------------------------------------------------------------|
C|-----------------------------7---------------------------0-0-2-2-|
G|-0-0-0-0-0-0-0-0-0-0-0-0-0-7---7-1-1-1-1-1-1-1-1-1-1-3-3---------|
C|-----------------------------------------------------------------|

3:13
F|-----------------------------------------------------------------|
C|-----------------------------------------------------------------|
G|-----------------0-0-0-0-0-0-0-0-1-1-1-1-1-1-1-1---------------4-|
C|-0-0-0-0-0-0-0-0---------------------------------3-3-3-3-2-3-2---|

F|---------------------------------------------------------------------|
C|-------------------------------------------------3-3-3-3-2-3-2-------|
G|---------------------------------1-1-1-1-1-1-1-1---------------4-----|
C|-0-0-0-0-0-0-0-0-2-2-2-2-2-2-2-2---------------------------------0---|
            
Submit corrections



        The Drug In Me Is You lessons Hard to play? Try these video lessons and learn fast The Drug In Me Is You lessons
        
↑ Back to top | Tablatures and chords for acoustic guitar and electric guitar, ukulele, drums are parodies/interpretations of the original songs. You may use it for private study, scholarship, research or language learning purposes only