» » »

Falling In Reverse - Rolling Stone Tabs

Artists:  A B C D E F G H I J K L M N O P Q R S T U V W X Y Z # 

Rolling Stone Tabs

(ver. 1) Click to play this song!
Falling In Reverse
 Rating:
4/5 (4 votes)

 Rolling Stone lessons Tabs too difficult? Try these video lessons and learn fast
 
                -------------------------------------------------------------------------------
                             Rolling Stone – Falling In Reverse
-------------------------------------------------------------------------------


Tuning: drop c

Intro

e|---------------------------------------------------------------------------|
B|---------------------------------------------------------------------------|
G|---------------------------------------------------------------------------|
D|---------------------------------------------------------------------------|
A|--------------5------------------------------------------------------------|
E|-0-2b--3-2-3-----3---2-3-2-3-----------------------------------------------|

e|------------------------------------------------------------------------------|
B|------------------------------------------------------------------------------|
G|------------------------------------------------------------------------------|
D|------------------------------------------------------------------------------|
A|---------------5----5-----5-----5---------------------------------------------|
E|-0-2b----2-2-3---3----3-----3-----3-------------------------------------------|


Verse

e|---------------------------------------------------------------------------|
B|---------------------------------------------------------------------------|
G|---------------------------------------------------------------------------|
D|----------------3-----------------5-----------------3----------------------|
A|----------------3-----------------5-----------------3----------------------|
E|-0-000-0000-0-0-3--0-000-0000-0-0-5--0-000-0000-0-0-3--0-000-0000-0-0------|

e|---------------------------------------------------------------------------|
B|---------------------------------------------------------------------------|
G|---------------------------------------------------------------------------|
D|---------------------------------------------------------------------------|
A|--8----8-10-8-5------------------------------------------------------------|
E|----00---------------------------------------------------------------------|


Verse lead

Just tremolo pick the d string open and hit the notes indicated

e|---------------------------------------------------------------------------|
B|---------------------------------------------------------------------------|
G|---------------------------------------------------------------------------|
D|-12-8-10-7-8-5-5-5h7-------------------------------------------------------|
A|---------------------------------------------------------------------------|
E|---------------------------------------------------------------------------|

Chorus

Lead

e|---------------------------------------------------------------------------|
B|---------------------------------------------------------------------------|
G|-14-12-17-15-->-----17-16-14-12-10-9-10-12---------------------------------|                >
D|--x--x--x--x---->x2--x--x--x--x--x-x--x--x---------------------------------|                >
A|-12-10-15-13-->-----15-14-12-10--8-7--8-10---------------------------------|
E|---------------------------------------------------------------------------|

Rhythm

e|------------------------------------------------------------------------------|
B|------------------------------------------------------------------------------|
G|------------------------------------------------------------------------------|
D|-3--0--5--3-2--3--0--5--3-2-10--9--7--5--3--3--5--6---------------------------|
A|-1--0--3--3-2--1--0--3--3-2--8--7--5--3--1--3--3--4---------------------------|
E|----0-----3-2-----0-----3-2-----------------3---------------------------------|

Breakdown is pretty simple but end with

Lead

e|---------------------------------------------------------------------------|
B|---------------------------------------------------------------------------|
G|-10------------------------------------------------------------------------|
D|--x------------------------------------------------------------------------|
A|--8------------------------------------------------------------------------|
E|---------------------------------------------------------------------------|

Rhythm

e|---------------------------------------------------------------------------|
B|---------------------------------------------------------------------------|
G|---------------------------------------------------------------------------|
D|--7------------------------------------------------------------------------|
A|--5------------------------------------------------------------------------|
E|---------------------------------------------------------------------------|

Last chorus lead

Play first part twice like first chorus

e|---------------------------------------------------------------------------|
B|---------------------------------------------------------------------------|
G|-16-14-19-17->----19-17-16-14-12-10-12-14----------------------------------|               >
D|--x--x--x--x--->x2-x--x--x--x--x--x--x--x----------------------------------|               >
A|-14-12-17-15->----17-15-14-12-10--9-10-12----------------------------------|
E|---------------------------------------------------------------------------|

Last chorus rythm

e|----------------------------------------|
B|----------------------------------------|
G|----------------------------------------|
D|--5--2--7--5-4->-----12-10-9-7-5-5-7-8--|                 >
A|--3--2--5--5-4--->x2-10--9-7-5-3-5-5-6--|                 >
E|-----2-----5-4->-----------------5------|

Outro

e|---------------------------------------------------------------------------|
B|---------------------------------------------------------------------------|
G|---------------------------------------------------------------------------|
D|---------------------------------------------------------------------------|
A|-------------7-------------------------------------------------------------|
E|-2-4b--5-4-5---5-4-5-4-5---------------------------------------------------|


e|---------------------------------------------------------------------------|
B|---------------------------------------------------------------------------|
G|---------------------------------------------------------------------------|
D|---------------------------------------------------------------------------|
A|-------------7------------7---7---7----------------------------------------|
E|-2-4b--5-4-5---5-4-5-4-5----5---5---5--------------------------------------|


************************************

| /   slide up
| \   slide down
| h   hammer-on
| p   pull-off
| ~   vibrato
| +   harmonic
| x   Mute note
| b   Bend
| pb  Pre-bend
| br  Bend release
| pbr Pre-bend release
| brb Bend release bend

************************************
            
Submit corrections


        Rolling Stone lessons Hard to play? Try these video lessons and learn fast Rolling Stone lessons
        
↑ Back to top | Tablatures and chords for acoustic guitar and electric guitar, ukulele, drums are parodies/interpretations of the original songs. You may use it for private study, scholarship, research or language learning purposes only