» » »

Falling In Reverse - Goddamn Tabs

Artists:  A B C D E F G H I J K L M N O P Q R S T U V W X Y Z # 

Goddamn Tabs

(ver. 2) Click to play this song!
Falling In Reverse
 Rating:
4/5 (4 votes)

 Goddamn lessons Tabs too difficult? Try these video lessons and learn fast
 
                FALLING IN REVERSE
Drop C

----------------|
----------------|
----------------|
-----------9--7-|
-----------9--7-|
-----------9--7-|

Intro Riff
---------------------------------------------------------------------------|
---------------------------------------------------------------------------|
---------------------------------------------------------------------------|
--------------------------------------------------------------9-7----------|
-0--0-00--000-000-0--0-00-000-000-5--5-55--555-555-5--5-5555--9-7----------|
-0--0-00--000-000-0--0-00-000-000-5--5-55--555-555-5--5-5555--9-7----------|
 *  * **  *** *** *  * ** *** *** *  * **  *** *** *  * ****  
---------------------------------------------------------------------------|
---------------------------------------------------------------------------|
---------------------------------------------------------------------------|
---------------------------------------------------------------------------|
-0--0-00--000000000--0-00--0-0-0-5---5-55--555-555-5--5-5-5-4-4-4----------|
-0--0-00--000000000--0-00--0-0-0-5---5-55--555-555-5--5-5-5-4-4-4----------|
 *  * **  *********  * **  * * * *   * **  *** *** *  * * * * * *


Verse
Guitar 1
---------------------------------------------------------------------------|
--7--3--7--3--5-3-5-3----3-------------------------------------------------|
----------------------4----------------------------------------------------|
--------------------------------x3---7-7-7-7-5-5-5-------------------------|x2
-------------------------------------7-7-7-7-5-5-5-------------------------|
-------------------------------------7-7-7-7-5-5-5-------------------------|
Guitar 2
---------------------------------------------------------------------------|
---------------------------------------------------------------------------|
----------------------2~~~-------------------------------------------------|
-----0--4--0--------------------x3---7-7-7-7-5-5-5-------------------------|x2
-------------------------------------7-7-7-7-5-5-5-------------------------|
--0-----------0-4-7------------------7-7-7-7-5-5-5-------------------------|


Chorus 
Guitar 1
---------------------------------------------------------------------------|
---------------------------------------------------------------------------|
---------------------------------------------------------------------------|
--0-0----0-0----5-5----5-5----9-9-9-9-7-7-7-7-5-5-5-5-5-5-5-5--------------|x2
--0-0----0-0----5-5----5-5----9-9-9-9-7-7-7-7-5-5-5-5-5-5-5-5--------------|
--0-0----0-0----5-5----5-5----9-9-9-9-7-7-7-7-5-5-5-5-5-5-5-5--------------|
Guitar 2
---------------------------------------------------------------------------|
---------------------------------------------------------------------------|
-----7777---7777---7777---7777-11~----9~~-----7~~--------------------------|
-----xxxx---xxxx---xxxx---xxxx-x------x-------x----------------------------|x2
-----5555---5555---5555---5555-9~~----7~~-----5~~--------------------------|
---------------------------------------------------------------------------|


Play First Row of the Intro Riff

Play Verse (Second repeat has 0 and 5 powerchord)

Play Chorus


Solo
Guitar 1
--12~~\10~~-9~~------------------------------------------------17~b--------|
----------------10~~----------------10v--------10--/12--/14----------------|
---------------------11~~--------------------------------------------------|
-------------------------12~-----11~--------------7---/9---/11-------------|
----------------------------12~9~------------------------------------------|
------------------------------------10v~~~---------------------------------|
||
--22brbr-21-----22p18------------20brbrbrbrb~~----------9h12~~\9h10p9------|
-----------22~~-------20p18---------------------------10-------------------|
---------------------------19p18---------------------9---------------------|
---------------------------------------------------11----------------------|
------------------------------------------------9h12-----------------------|
---------------------------------------------------------------------------|
||
---------------------------------------------------------10h12-12/24~-12p10---------------|
------------------------------------------------------------------------------------------|
--11p9p7--7h9---------------------------------------11h12------------------12-------------|
--------11----12p11p9---------------------------------------------------------9--9--9-----|
---------------------12p11p9----------------------10---------------------------10-10-12~~-|
----------------------------12p11p9h11h12-9v~~--14----------------------------------------|
||
---------17-----------------17-17-17-----------21brbrb~~~~~~-------|
---------------15-----15brb~~--------17-14-15-(15)~~~--------------|
------------------14-----------------------------------------------|
-------------------------------------------------------------------|
--/14-17----17-----------------------------------------------------|
-------------------------------------------------------------------|

Guitar 2 during Solo
---------------------------------------------------------------------------|
---------------------------------------------------------------------------|
---------------------------------------------------------------------------|
-9-9-9-9-9-9-9-9-0-0-0-0-0-0-0-0-5-5-5-5-5-5-5-5-7-7-7-7-7-7-7-7-----------|x2
-9-9-9-9-9-9-9-9-0-0-0-0-0-0-0-0-5-5-5-5-5-5-5-5-7-7-7-7-7-7-7-7-----------|
-9-9-9-9-9-9-9-9-0-0-0-0-0-0-0-0-5-5-5-5-5-5-5-5-7-7-7-7-7-7-7-7-----------|


-------------------|
-------------------|
-------------------|
--9-9---7-7---5-5--|
--9-9---7-7---5-5--|
--9-9---7-7---5-5--|


Play Chorus 


Outro (nearlly same as Intro)
---------------------------------------------------------------------------|
---------------------------------------------------------------------------|
---------------------------------------------------------------------------|
--------------------------------------------------------------9-7----------|
-0--0-00--000-000-0--0-00-000-000-5--5-55--555-555-5--5-5555--9-7----------|
-0--0-00--000-000-0--0-00-000-000-5--5-55--555-555-5--5-5555--9-7----------|
 *  * **  *** *** *  * ** *** *** *  * **  *** *** *  * ****  
---------------------------------------------------------------------------|
---------------------------------------------------------------------------|
---------------------------------------------------------------------------|
---------------------------------------------------------------------------|
-0--0-00--000000000--0-00--0-0-0-5---5-5---5-5----5--5-5-5-5-5-5-----------|
-0--0-00--000000000--0-00--0-0-0-5---5-5---5-5----5--5-5-5-5-5-5-----------|
 *  * **  *********  * **  * * * *   * *   * * *  *  * * * * * *



Done. Please rate and comment :P
            
Submit corrections


        Goddamn lessons Hard to play? Try these video lessons and learn fast Goddamn lessons
        
↑ Back to top | Tablatures and chords for acoustic guitar and electric guitar, ukulele, drums are parodies/interpretations of the original songs. You may use it for private study, scholarship, research or language learning purposes only