» » »

Face To Face - Don't Turn Away Bass

Artists:  A B C D E F G H I J K L M N O P Q R S T U V W X Y Z # 

Don't Turn Away Bass

(ver. 1) Click to play this song!
Face To Face
 Rating:
4/5 (4 votes)


 Don't Turn Away lessons Tabs too difficult? Try these video lessons and learn fast
 
                IM NOT SURE IF THIS IS TOTALLY RIGHT BUT IT SOUNDS PRETTY GOOD

INTRO
G:--------------------------------------------------------|
D:--------------------------------------------------------|
A:-----------------------------------------753-3-333------|
E:3-3-333-3-3-333-873-3-333-3-3-333-3-3-333---------------|     x2

PRE CHORUS
G:----------------------|
D:----------------------|
A:0-------0----3-----75-|
E:----3-----------------|

VERSE
G:---------------------------------------|
D:---------------------------------------|
A:----------------3333333333333333-------|
E:3333333333333333-----------------------|      REPEAT 4 TIMES

PRE CHORUS
G:----------------------|
D:----------------------|
A:0-------0----3-----75-|
E:----3-----------------|

CHORUS
G:-----------------------------------------------------------------|
D:-----------------------------------------------------------------|
A:----------------333333333333333377777777777777775555555555555555-|
E:3333333333333333-------------------------------------------------|

G:-----------------------------------------------------------------|
D:-----------------------------------------------------------------|
A:----------------333333333333333355555555555555553333333333333333-|
E:3333333333333333-------------------------------------------------|

INTRO
G:---------------------------------------------------|
D:---------------------------------------------------|
A:-----------------------------------------753-3-333-|
E:3-3-333-3-3-333-873-3-333-3-3-333-3-3-333----------|

VERSE
G:-----------------------------------|
D:-----------------------------------|
A:----------------3333333333333333---|
E:3333333333333333-------------------|  X4

PRE CHORUS
G:----------------------|
D:----------------------|
A:0-------0----3-----75-|
E:----3-----------------|

CHORUS
G:-----------------------------------------------------------------|
D:-----------------------------------------------------------------|
A:----------------333333333333333377777777777777775555555555555555-|
E:3333333333333333-------------------------------------------------|

G:-----------------------------------------------------------------|
D:-----------------------------------------------------------------|
A:----------------333333333333333355555555555555553333333333333333-|
E:3333333333333333-------------------------------------------------|

G:----------------------------------------------------------------|
D:----------------------------------------------------------------|
A:7777777777777777333333333333333377777777777777775555555555555555
E:----------------------------------------------------------------

         YOU SEE THAT IV'E TRIED BUT YOU TURN AND WALK AWAY
G:-----------------------------------------------------------------|
D:-----------------------------------------------------------------|
A:----------------333333333333333377777777777777775555555555555555-|
E:3333333333333333-------------------------------------------------|

DONT TURN AWAY
G:------------------------------------------------------------------|
D:------------------------------------------------------------------|
A:10-10--1010101010101010-7-7--77777777-5-5--55555555-3-3--33333333-|
E:------------------------------------------------------------------|


PRE CHORUS
G:----------------------|
D:----------------------|
A:0-------0----3-----75-|
E:----3-----------------|

CHORUS
G:-----------------------------------------------------------------|
D:-----------------------------------------------------------------|
A:----------------333333333333333377777777777777775555555555555555-|
E:3333333333333333-------------------------------------------------|

G:-----------------------------------------------------------------|
D:-----------------------------------------------------------------|
A:----------------333333333333333355555555555555553333333333333333-|
E:3333333333333333-------------------------------------------------|

LAST CHORUS
G:-------------------------------------------------------------------|
D:-------------------------------------------------------------------|
A:10-10--1010101010101010-7-7--77777777-5-5--55555555-3-3--33333333--|
E:-------------------------------------------------------------------| X2

OUTRO
G:-----------|
D:-----------|
A:10R--------|
E:-----------|
            
Submit corrections



        Don't Turn Away lessons Hard to play? Try these video lessons and learn fast Don't Turn Away lessons
        
↑ Back to top | Tablatures and chords for acoustic guitar and electric guitar, ukulele, drums are parodies/interpretations of the original songs. You may use it for private study, scholarship, research or language learning purposes only