» » »

Everything Everything - Cough Cough Bass

Artists:  A B C D E F G H I J K L M N O P Q R S T U V W X Y Z # 

Cough Cough Bass

(ver. 1) Click to play this song!
Everything Everything
 Rating:
4/5 (4 votes)


 Cough Cough lessons Tabs too difficult? Try these video lessons and learn fast
 
                Happy New Year!

/   - Slide up
\   - Slide down
(0) - An "I'm not sure" note

|--------------------------------------------------------------------------------------|

Intro/Pre-Chorus
    BAD!  WINDOW! DOOR! VISION!
g]-----------------------------]
D]-----------------------------]
A]-----------------------------]
E]--7-----5-------0-----3------]


    FLOOR! EARDRUM! MORE!
G]-------------------------------]
D]--------------------2-----5----]
A]-------------------------------]
E]--7------5--------0---2-3---5--]

|--------------------------------------------------------------------------------------|

Theme/Verse/Thing Number 1 and 2
G]---------------/11-----------------------------------------------------------------]
D]----------5--------12-12-----------------------------------9-----------------------]
A]--------5------------------------------5\-----2--2------/9------1--1-----1-2-4-----]
E]--3--3-----------------------3--3---5------------------------------------------2---]



G]---------------/11-----------------------------------------------------------------]
D]----------5--------12-12-----------------------------------9-------------8-9-11----]
A]--------5------------------------------5\-----2--2------/9------1--1------------9--]
E]--3--3-----------------------3--3---5----------------------------------------------]


                           \/**********************\/
G]----------------------------------------------------------------------------------]
D]-----5-4------5-4-------/9-9-7------------------------(8)-(9)---------------------]
A]---------5--------5------------9-10-10-9-7------------------------------1-2-4-----]
E]--3---------3--------3---------------------10-9---7---(6)-(7)---6--6-----------2--]



G]----------------------------------------------------------------------------------]
D]-----5-4------5-4-------/9-9-7------------------------(8)-(9)-----------8-9-11----]
A]---------5--------5------------9-10-10-9-7--------------------------------------9-]
E]--3---------3--------3---------------------10-9---7---(6)-(7)---6--6--------------]

|-------------------------------------------------------------------------------------|

Explanation
G]-----
D]-(#)-    - Either or both of these note could be played here...
A]-----      depending on which day I listen to it
E]-(#)-

\/********\/  - I've used this to mark out a run that sounds a little different in the 
                second Verse/Theme. The second time around it sounds a little laid back.
                or I could be tripping... The closest I could tab is:

G]-------------------------]
D]--/9-9-7-----------------]
A]---------9/10\9--7-------]
E]-------------------10--7-]

|-------------------------------------------------------------------------------------|

3rd Theme

G]-----------------------------------------------------------------------------]
D]------------------------------------------------------------------8-9-11-----]
A]---/10------7----9-----------14----12----10-------7--9--------------------9--]
E]-----------------------------------------------------------------------------]



G]----------------------------------------------------------------------------------]
D]-----5-4------5-4-------/9-9-7------------------------(8)-(9)---------------------]
A]---------5--------5------------9-10-10-9-7------------------------------1-2-4-----]
E]--3---------3--------3---------------------10-9---7---(6)-(7)---6--6-----------2--]



G]----------------------------------------------------------------------------------]
D]-----5-4------5-4-------/9-9-7------------------------(8)-(9)-----------8-9-11----]
A]---------5--------5------------9-10-10-9-7--------------------------------------9-]
E]--3---------3--------3---------------------10-9---7---(6)-(7)---6--6--------------]

|-------------------------------------------------------------------------------------|

Hope everyone understands this. I banged it out pretty quick. This song made me pick up
the bass again and I thought I'd just share this since it's not on the site yet. 
Cheers!
            
Submit corrections



        Cough Cough lessons Hard to play? Try these video lessons and learn fast Cough Cough lessons
        
↑ Back to top | Tablatures and chords for acoustic guitar and electric guitar, ukulele, drums are parodies/interpretations of the original songs. You may use it for private study, scholarship, research or language learning purposes only