» » »

Evergrey - Numb Tabs

Artists:  A B C D E F G H I J K L M N O P Q R S T U V W X Y Z # 

Numb Tabs

(ver. 1) Click to play this song!
Evergrey
 Rating:
4/5 (4 votes)


 Numb lessons Tabs too difficult? Try these video lessons and learn fast
 
                     This would be the second solo of the song.  Im tabbing this out by memory, no 
guitars present. So, it's a little rough, but you can get the feel of it.  I'll 


Notation:
^ bend
/ slide up
\ slide down
h hammer on
p pull off
v vibrato
~~ palm mute 
r rest

   2:53
E||------------------------------------|-----------------------------------|
B||------------------------------------|-----------------------------------|
G||------------------------------------|--------------------12-9-----------|
D||-12---------------12----------------|-14-14/12-10-12-12-----------------|
A||----12p10-12-12^-----12p10-12-12^---|------------------------14p12h14---|
E||------------------------------------|-----------------------------------|
   

   3:12    (repeat bar twice)
E||------------------------------------|-----------------------------------|
B||------------------------------------|-----------------------------------|
G||------------------------------------|-----------------------------------|
D||-\12-------------v------------------|--/14-14/12--10-12------10h12-\14--|
A||----12p10-12p10-12------------------|-------------------10h12-----------|
E||------------------------------------|-----------------------------------|


    3:25                                          v 
E||-12p10h12^v-----12-15----12------|-12-15-----------12-------------------|
B||------------12--------15---------|----------12-12^--------v-------------|
G||---------------------------------|---------------------12-14------------|
D||---------------------------------|--------------------------------------|
A||---------------------------------|--------------------------------------|
E||---------------------------------|--------------------------------------|


   3:30
E||-------15-17--19^19-17--12-15----|----15---v----------------------------|
B||-v--17---------------------------|-15---15-17---------------------------|
G||-14------------------------------|--------------------------------------|
D||---------------------------------|--------------------------------------|
A||---------------------------------|--------------------------------------|
E||---------------------------------|--------------------------------------|

 
  (hold the bend while picking)
   3:49
E||-12^-12-12-12-12-12-12-12-12-12--|-------------------15h17p15------|
B||---------------------------------|----v--------15h17---------17p15-|
G||---------------------------------|-12h14-12h14---------------------|
D||---------------------------------|---------------------------------|
A||---------------------------------|---------------------------------|
E||---------------------------------|---------------------------------|


   i'm not quite sure about this part
E||-------------15h17p15------------|---------------------------------|
B||-------15h17-----------17p15-----|---------------------------------|
G||-12h14---------------------------|-14p12h14------------------------|
D||---------------------------------|---------------------------------|
A||---------------------------------|---------------------------------|
E||---------------------------------|---------------------------------|
            
Submit corrections



        Numb lessons Hard to play? Try these video lessons and learn fast Numb lessons
        
↑ Back to top | Tablatures and chords for acoustic guitar and electric guitar, ukulele, drums are parodies/interpretations of the original songs. You may use it for private study, scholarship, research or language learning purposes only