» » »

Evanescence - Heart Shaped Box Tabs

Artists:  A B C D E F G H I J K L M N O P Q R S T U V W X Y Z # 

Heart Shaped Box Tabs

(ver. 3) Click to play this song!
Evanescence
 Rating:
4/5 (4 votes)

 Heart Shaped Box lessons Tabs too difficult? Try these video lessons and learn fast
 
                -----------------------------------------------------------------------
             Evanescence -  Heart Shaped Box (Acoustic)
-----------------------------------------------------------------------


Tuning: Standard

Note: There are plenty of available tabs of this song, but all of them are in 
Drop D tuning. Indeed, a dropped D tuning was used in the original version (both
the Nirvana and Evanascence version). But if you are like me and don't wasnt to change 
the tuning of your guitar for each song, then this standard tuning version is for you.
It sounds exactly the same.
   
Chords:

F5      133xxx
A5      x022xx
D       xx0232


Intro 

      A5        F5        D            A5       F5         D   
 
e|------------------------------------------------------------------------|
B|------------------------------------------------------------------------|
G|-------2-------------------------------2--------------------------------|
D|-----2---2-----3--------0~---0-------2---2-----3-----0-4-4---4------0---|
A|--0----------3---3-5~-0----0---0---0---------3---3---------0----3-3-----|
E|-----------1-------------------------------1----------------------------|

Verse                                               
                                                        
e|------------------------------------------------------------------------|
B|------------------------------------------------------------------------|
G|-------2-------------------------------2--------------------------------|
D|-----2---2-----3--------0~---0-------2---2-----3-----0-4-4---4------0---|
A|--0----------3---3-5~-0----0---0---0---------3---3---------0----3-3-----|
E|-----------1-------------------------------1----------------------------|



Pre Chorus:

e|----------------------------------------------------------2-2-2---------|
B|-----------------------------------------------------3-3--3-3-3---3-0---|
G|-------2-------------------------------2-------------2-2--2-2-2---2-0---|
D|-----2---2-----3--------0~---0-------2---2-----3-----0-0--0-0-0---0-----|
A|--0----------3---3-5~-0----0---0---0---------3---3----------------------|
E|-----------1-------------------------------1----------------------------|


   
Chorus:


e|-----------------------------2---2----------|
B|------------------------3-3--3-3-3---3-0----|
G|--x-2-4b(5)-----4b(5)---2-2--2-2-2---2-0----|
D|--2-2-------3-3---------0-0--0-0-0---0------|
A|--0-0-------3-3-----------------------------|
E|------------1-1-----------------------------|


Ending:

The ending is the same as the verse with the 8 notes played slowly.

| b(.) bend to note (.)
| /  slide up
| \  slide down
| h  hammer-on
| p  pull-off
| ~  vibrato
| +  harmonic
| x  Mute note
===============================================================================
            
Submit corrections


        Heart Shaped Box lessons Hard to play? Try these video lessons and learn fast Heart Shaped Box lessons
        
↑ Back to top | Tablatures and chords for acoustic guitar and electric guitar, ukulele, drums are parodies/interpretations of the original songs. You may use it for private study, scholarship, research or language learning purposes only