» » »

Europe - Cherokee Tabs

Artists:  A B C D E F G H I J K L M N O P Q R S T U V W X Y Z # 

Cherokee Tabs

(ver. 3) Click to play this song!
Europe
 Rating:
4/5 (4 votes)

 Cherokee lessons Tabs too difficult? Try these video lessons and learn fast
 
                =-=-= Legend =-=-=
~  - Let ring
s  - Slide to required note
sl - Slide late to required note
h  - Hammer on
hl - Hammer on late
p  - Pull off
pl - Pull off late
<> - Harmonics/Vibrate
{} - Played Louder
() - Played Softer
[] - Continued Note from Last Bar
=  - Staccato
b* - Bend to required note
r* - Bend Return to required note
#*#- If you wish, play the required fill here.
§  - Heavy vibrate.

e|-------------------14------12--14--15--14h15p14p12------------------|
B|----------------------------------------------------15---13---------|
G|-14b16-16r14-------------------------------------------------16---14|
D|--------------17----------------------------------------------------|
A|--------------------------------------------------------------------|
E|--------------------------------------------------------------------|

e|-------------------14------14--15--17--15h17p15p14----------14b15r14---------|
B|----------------------------------------------------15----------------17--17-|
G|-14b16-16r14-----------------------------------------------------------------|
D|--------------17-------------------------------------------------------------|
A|-----------------------------------------------------------------------------|
E|-----------------------------------------------------------------------------|

e|----15-------------------------------------------------|
B|-17----17-15-17---15---------15-17---------------------|
G|---------------------16-14-16------14p16r14-----14~~~~-|
D|--------------------------------------------17---------|
A|-------------------------------------------------------|
E|-------------------------------------------------------|

e|------------------14--14h15-17p15p14-------14-----14------14h15h17p15p14--------|
B|-14b16-16r14-------------------------17-15----15------17-----------------17--15-|
G|--------------17----------------------------------------------------------------|
D|--------------------------------------------------------------------------------|
A|--------------------------------------------------------------------------------|
E|--------------------------------------------------------------------------------|


--------------------------------------------------------------------------------------------


This part is actually a synth solo, but I tabbed it anyway. =)

e|----------------------------------------------------------------------------|
B|------------------------------------------------------12--------------------|
G|-12--11--9------9-------------------9--12--11--9--11------11-9--------------|
D|------------12--------------10--12-----------------------------12-----------|
A|----------------------------------------------------------------------------|
E|----------------------------------------------------------------------------|


e|---------------------------------------------------------------------10-|
B|--------------------------------------10----------10--13---------13-----|
G|--------11--12--11------9------9--12----------11----------9--12---------|
D|-9--12--------------12-----10-------------12----------------------------|
A|------------------------------------------------------------------------|
E|------------------------------------------------------------------------|


e|-----10--14--14h15-12h15-10h15----15-------------------------|
B|-------------------------------13-------15----15----15----15-|
G|-12----------------------------------14----12----11----------|
D|-------------------------------------------------------14----|
A|-------------------------------------------------------------|
E|-------------------------------------------------------------|


e|-------------------------------------------------------------------------|
B|-13p12p10-13p12p10-13p12p10-13p12p10-13p12p10-13p12p10-13p12p10-13p12p10-|
G|-------------------------------------------------------------------------|
D|-------------------------------------------------------------------------|
A|-------------------------------------------------------------------------|
E|-------------------------------------------------------------------------|

e|-------------------------------------------------------------------------|
B|-------------------------------------------------------------------------|
G|-12p10p8-12p10p8-12p10p8-12p10p8-12p10p8-12p10p8-12p10p8-12p10p8-12p10p8-|
D|-------------------------------------------------------------------------|
A|-------------------------------------------------------------------------|
E|-------------------------------------------------------------------------|

e|-------------------------------------------------------------------------|
B|-13p12p10-13p12p10-13p12p10-13p12p10-13p12p10-13p12p10-13p12p10-13p12p10-|
G|-------------------------------------------------------------------------|
D|-------------------------------------------------------------------------|
A|-------------------------------------------------------------------------|
E|-------------------------------------------------------------------------|

e|-------------------------------------------------------------------------|
B|-15p13p12-15p13p12-15p13p12-15p13p12-15p13p12-15p13p12-15p13p12-15p13p12-|
G|-------------------------------------------------------------------------|
D|-------------------------------------------------------------------------|
A|-------------------------------------------------------------------------|
E|-------------------------------------------------------------------------|

e|-------------------------------------------------------------------------|
B|-13p12p10-13p12p10-13p12p10-13p12p10-13p12p10-13p12p10-13p12p10-13p12p10-|
G|-------------------------------------------------------------------------|
D|-------------------------------------------------------------------------|
A|-------------------------------------------------------------------------|
E|-------------------------------------------------------------------------|

e|-------------------------------------------------------------------------|
B|-------------------------------------------------------------------------|
G|-12p10p8-12p10p8-12p10p8-12p10p8-12p10p8-12p10p8-12p10p8-12p10p8-12p10p8-|
D|-------------------------------------------------------------------------|
A|-------------------------------------------------------------------------|
E|-------------------------------------------------------------------------|

e|-------------------------------------------------------------------------|
B|-13p12p10-13p12p10-13p12p10-13p12p10-13p12p10-13p12p10-13p12p10-13p12p10-|
G|-------------------------------------------------------------------------|
D|-------------------------------------------------------------------------|
A|-------------------------------------------------------------------------|
E|-------------------------------------------------------------------------|

e|-------17~~~~-22§§§§§§---------------------------------------------------|
B|-15~~~-------------------------------------------------------------------|
G|-------------------------------------------------------------------------|
D|-------------------------------------------------------------------------|
A|-------------------------------------------------------------------------|
E|-------------------------------------------------------------------------|


There are probably some minor mistakes during the fast parts. If you think something 

Thanks to Alessandro Corazzi. 
            
Submit corrections


        Cherokee lessons Hard to play? Try these video lessons and learn fast Cherokee lessons
        
↑ Back to top | Tablatures and chords for acoustic guitar and electric guitar, ukulele, drums are parodies/interpretations of the original songs. You may use it for private study, scholarship, research or language learning purposes only