» » »

Eric Clapton - Peaches And Diesel Tabs

Artists:  A B C D E F G H I J K L M N O P Q R S T U V W X Y Z # 

Peaches And Diesel Tabs

(ver. 2) Click to play this song!
Eric Clapton
 Rating:
4/5 (4 votes)


 Peaches And Diesel lessons Tabs too difficult? Try these video lessons and learn fast
 
                
1st Guitar:

Intro: |D / / / |A/D / / / |D7sus4 / / / |Gm/D / G/D / |
       |D / / / |A/D / / / |D7sus4 / / / |Gm/D / C / ||

Verse:

 F                  G7/F                 Em
 +   +   +   +      +   +   +   +        +   +   +   +
------------------|--------------------|------------------|
---------6--8--10-|-6-------------6h8p6|-5----------------|
------------------|--------------------|------------------|
------------------|--------------------|------------------|
------------------|--------------------|------------------|
------------------|--------------------|------------------|

 Am       Am/G      F                  G7/F
 +     +   +   +     +   +   +   +      +   +   +   +
-------------------|------------------|--------------------|
---/10-----8-------|---------6--8--10-|-6-------------6h8p6|
---/-9-----7-------|------------------|--------------------|
-------------------|------------------|--------------------|
-------------------|------------------|--------------------|
-------------------|------------------|--------------------|

 Em                   Am      Am/G      F
 +   +   +   +        +   +   +   +     +   +   +   +
--------------------|-----------------|------------------|
-5-------------3h5p3|-----------------|---------6--8--10-|
--------------------|-5-------4-5-4---|------------------|
--------------------|-----------------|-7----------------|
--------------------|-----------------|------------------|
--------------------|-----------------|------------------|

 E                  E/A     A (Let ring!................)
 +   +   +    +     +   +   +   +      +   +   +   +
----------------7-|-7-----9-9--------|-----------------||
-9-------9--10----|------------------|-----------------||
------------------|------------------|-----------------||
------------------|------------------|-----------------||
------------------|------------------|-----------------||
------------------|------------------|-----------------||

Chorus:

 D                   A/D                 D7sus4
 +   +    +   +      +    +    +   +     +   +   +   +
-------------------|-------------------|-----------------|
---------^7-5------|---10-10-----------|---------8---7---|
---------^7---7-/9-|-------------------|-----------------|
---------^7--------|-------------------|-----------------|
-------------------|-------------------|-----------------|
-------------------|-------------------|-----------------|

 Gm/D    G/D       D                   A/D
 +   +   +   +     +   +    +   +      +    +    +   +
-----------------|-------------------|-------------------|
-----------------|---------^7-5------|---10-10-----------|
-7---------------|---------^7---7-/9-|-------------------|
---------9-------|-7-------^7--------|-------------------|
-----------------|-------------------|-------------------|
-----------------|-------------------|-------------------|

 D7sus4            Gm/D    C
 +   +   +   +     +   +   +   +
-----------------|-----------------||
---------8---7---|-----------------||
-----------------|-7-------9-------||
-----------------|-----------------||
-----------------|-----------------||
-----------------|-----------------||

Repeat 1x Verse and then play:

Chorus

 D                   A/D                 D7sus4
 +   +    +   +      +    +    +   +     +   +   +   +
-------------------|-------------------|-----------------|
---------^7-5------|---10-10-----------|---------8---7---|
---------^7---7-/9-|-------------------|-----------------|
---------^7--------|-------------------|-----------------|
-------------------|-------------------|-----------------|
-------------------|-------------------|-----------------|

 Gm/D    G/D       D                   A/D
 +   +   +   +     +   +    +   +      +    +    +   +
-----------------|-------------------|-------------------|
-----------------|---------^7-5------|---10-10-----------|
-7---------------|---------^7---7-/9-|-------------------|
---------9-------|---------^7--------|-------------------|
-----------------|-------------------|-------------------|
-----------------|-------------------|-------------------|

 D7sus4            Gm/D    G/D       E
 +   +   +   +     +   +   +   +     +   +   +   +
-----------------|-----------------|-----------------|
---------8---7---|-----------------|-----------------|
-----------------|-7-------9-------|-9---------------|
-----------------|-----------------|-----------------|
-----------------|-----------------|-----------------|
-----------------|-----------------|-----------------|

 A (Let ring!.....)
 +   +   +   +
-5---------------||
-5---------------||
-6---------------||
-7---------------||
-0---------------||
-----------------||

Solo:

 Bb6                Bbdim             Am7             Dm
 +   +    +   +     +   +   +   +     +   +   +   +
--------------5---|-----------------|-8-6-5-----------|
------------6---8-|-------------6---|-------6-----8---|
---------/7-------|-----------7-----|---------------7-|
------------------|-----------------|-----------------|
------------------|-----------------|-----------------|
------------------|-----------------|-----------------|

       Dm/C    Bb6                   Bb/C
 +   +   +   +     +   +   +   +     +   +   +   +
-----------------|---------5-------|-----------------|
-------------6-6-|-----------7-6-8-|---------8-6-6-8-|
-------5---7-----|-----------------|-----------------|
-----------------|-----------------|-----------------|
-----------------|-----------------|-----------------|
-----------------|-----------------|-----------------|

 Bb/F    F                                 Bb6
 +   +   +   +     +    +    +     +       +   +   +    +
-6-----5-5-------|---13-12-8-10-12-10-10-|---------10-8-8-10-|
-----------------|-----------------------|-------------------|
-----------------|-----------------------|-------------------|
-----------------|-----------------------|-------------------|
-----------------|-----------------------|-------------------|
-----------------|-----------------------|-------------------|

 Bbdim             Am7             Dm        Dm/C    Bb6
 +   +   +   +     +    +   +   +      +   +   +   +
-----------------|----8------------5-|-----------------|
-8-6-6-8-6---8-6-|-10---10-----------|-8-6-6-----6-8-6-|
-----------------|-------------------|-------5-7-------|
-----------------|-------------------|-----------------|
-----------------|-------------------|-----------------|
-----------------|-------------------|-----------------|

                   C/Bb
 +   +   +   +     +    +    +    +
-----------------|---------8---------10-||
-----------6-6-8-|-10---11--------10----||
---------7-------|----------------------||
-----------------|----------------------||
-----------------|----------------------||
-----------------|----------------------||

Repeat 1x Chorus, 1x Verse and play again Chorus with repeats ad lib.
            
Submit corrections



        Peaches And Diesel lessons Hard to play? Try these video lessons and learn fast Peaches And Diesel lessons
        
↑ Back to top | Tablatures and chords for acoustic guitar and electric guitar, ukulele, drums are parodies/interpretations of the original songs. You may use it for private study, scholarship, research or language learning purposes only