» » »

Eraserheads - Toyang Bass

Artists:  A B C D E F G H I J K L M N O P Q R S T U V W X Y Z # 

Toyang Bass

(ver. 1) Click to play this song!
Eraserheads
 Rating:
4/5 (4 votes)


 Toyang lessons Tabs too difficult? Try these video lessons and learn fast
 
                -----------------------------------------------------------------------
			     TOYANG - Eraserheads
-----------------------------------------------------------------------

Note: I recommend you to listen to the song... mahirap kasi i - explain eh...


Tuning: Standard? May Standard Ba Ang Bass?

Intro:

“They try to tell us we’re too young… too young to really be in love…”

G|-------|
D|-------|
A|-------|
E|-5-5-5-|

Verse 1, 2, And 3:

“Bahay naming maliit lamang..."

Note: Mabilis itong tab na ito... napakabilis... as in to the highest level na ito...
keep practicing in this part... the rest ay madali na... promise... I swear... cross my
play this tab below 5 times... pagdating sa Verse 2 (Pengeng singko pambili ng puto)... 
this twice... pagdating sa Verse 3(madalas man kaming walang pera)... play this thrice...

G|-----------------------------------------------------------|
D|-------------------5-5-3--------3-3-1-1--8-8-6-6-5-5-------|
A|----------3-3-5--3-------5-1--1----------------------8-8---|
E|-3-3-5-5-------------------------------------------------3-|

Chorus:

“Mahal ko si Toyang… pagkat siya ay simple lamang… kahit namumroblema… basta’t kami ay magkasama…”

Note: Repeat this tab 4 times... sabi ko naman sayo madali na yung iba eh...

G|-------------------------------|
D|-------------------------------|
A|-----------------5-5-5-5-5-5-5-|
E|-5-5-5-5-5-5-5-5---------------|

Solo:

Note: I’m 92% sure about this. Masyado mababa kais yung tono eh. Hindi ko makuha – kuha.

G|---|                    G|--------|
D|---| Repeat this tab    D|--------|
A|---| many times then…   A|--------|
E|-5-|                    E|-1/11\1-|

Post - Solo:

Note: Repeat this tab 6 times

G|-------------------------------|
D|-------------------5-3---3-----|
A|-1---------3-5---3---------5-1-|
E|---3-5---5---------------------|

(Repeat Verse 1 Then Chorus)

Pagkatapos nito, may isa pang solo. Play the tab that is 92% sure without the slide.

End:

“We were not too young at all…”

G|----------------------------------------------------------------|
D|----------------------------------------------------------------|
A|--------------------------------------3-5-5-3-----3-5-5-3-----3-|
E|-6-6-6-6-6-6-6-6-8-8-8-8-8-8-8-8—-4-5---------4-5---------4-5---|

G|---------|
D|---------|
A|-5-5-3---|
E|-------4-|

See also my bass tabs:

Ligaya (Carl Gabriel C. Culvera)
Pare Ko (Carl Gabriel C. Culvera)
===============================================================================
            
Submit corrections



        Toyang lessons Hard to play? Try these video lessons and learn fast Toyang lessons
        
↑ Back to top | Tablatures and chords for acoustic guitar and electric guitar, ukulele, drums are parodies/interpretations of the original songs. You may use it for private study, scholarship, research or language learning purposes only