» » »

Eraserheads - Ligaya Bass

Artists:  A B C D E F G H I J K L M N O P Q R S T U V W X Y Z # 

Ligaya Bass

(ver. 1) Click to play this song!
Eraserheads
 Rating:
4/5 (4 votes)


 Ligaya lessons Tabs too difficult? Try these video lessons and learn fast
 
                -------------------------------------------------------------------------------
			     Ligaya - Eraserheads
-------------------------------------------------------------------------------


Tuning: Standard? May Standard Ba Ang Bass?

Intro:

G|------------------------|
D|------------------------|
A|------------------------|
E|-5---3-5---5/1---5----|

Verse:

G|--------------------------------------------------------------------|
D|--------------------------------------------------------------------|
A|--------------------------------------------------------------------|
E|-5-5-3h5--5-5-3h5--5-10-10-8h10--5-10-10-8h10-----------------------|

(Repeat Verse)

G|-------------------------------------------------------------------------|
D|-------------------------------------------------------------------------|
A|-------------------7-7-5h7--5-8-8-5h8---5-7--7-5-5-3---------------------|
E|-10-9-7-7-5h7--5---------------------------------------------------------|

(Repeat All Except Intro)

Chorus:

“Sagutin mo lang ako…”

G|-------------------------------------------------------------------------|
D|---------3---------------------------------------------------------------|
A|-3----3---------------1-3-5--5-5-3-1-0------------------------3/5-3-1----|
E|--------------------1-3-5--------------3-5-1-1111111111-1-3-5------------|

“Huwag ka sanang magtanong at magduda…”

G|-------------------------------------------------------------------------|
D|-------------------------------------------------------------------------|
A|----------1-3-5--5-5-3-1-0-------3---3----3-4---4---4-3---3--------------|
E|-1-1-3-5---------------------3-5----4---4----4---4-----4---4-------------|

“Lahat tayo’y mabubuhay ng tahimik at buong ligaya…”

G|-------------------------------------------------------------------------|
D|------------------4-3--3-------------------------------------------------|
A|--------------7-3--------4-5-7-9/1p0------------1-3-5--5-5-5-5-5---------|
E|-4-5--5-7--7-----------------------------1-1-3-5-------------------------|

(Repeat Verse As Interlude)
(Repeat Verse)
(Repeat Chorus Until Fade)

| /  slide up
| \  slide down
| h  hammer-on
| p  pull-off
===============================================================================
            
Submit corrections



        Ligaya lessons Hard to play? Try these video lessons and learn fast Ligaya lessons
        
↑ Back to top | Tablatures and chords for acoustic guitar and electric guitar, ukulele, drums are parodies/interpretations of the original songs. You may use it for private study, scholarship, research or language learning purposes only