» » »

Eraserheads - Kaliwete Bass

Artists:  A B C D E F G H I J K L M N O P Q R S T U V W X Y Z # 

Kaliwete Bass

(ver. 1) Click to play this song!
Eraserheads
 Rating:
4/5 (4 votes)


 Kaliwete lessons Tabs too difficult? Try these video lessons and learn fast
 
                Band: Eraserheads


Verse I:
Gb|-------------|----------------|
Db|-------------|----------------|
Ab|-7--7s5--5s7-|---3--3-7--7s12-|
Eb|-------------|-7--------------|


Verse II:
Gb|-------------------------------------|
Db|--------------------7----------7-----|
Ab|--------5-5--7----7---9-7----7---9-7-|
Eb|-5-5--7--------55---------55---------|

Gb|-------------------------------------|
Db|--------------------7----------7-----|
Ab|-7-7--9-5-5--7----7---9-7----7---9-7-|
Eb|---------------55---------55---------|

Gb|-------------------------------------|
Db|--------------------7----------7-----|
Ab|-7-7--9-5-5--7----7---9-7----7---9-7-|
Eb|---------------55---------55---------|

Gb|--------------------|---------|
Db|--------------------|---------|
Ab|-3-3--s7-7----------|---------|
Eb|------------7-5-5-5-|-55-77-9-|


Chorus:
Gb|-------------------------------------|---------|
Db|-------------------------------------|---------|
Ab|-55-5-55-5-44-4-44-4-s22-4-55-7------|---------|
Eb|--------------------------------55-5-|-55-77-9-|

Gb|-------------------------------------------|
Db|-------------------------------------------|
Ab|-55-5-55-5-44-4-44-4-s22-2-22-2-s77-7--7-5-|
Eb|-------------------------------------------|


Repeat Verse II and Chorus


Outro:
Gb|-------------------------------------|
Db|--------------------7----------7-----|
Ab|-7-7--9-5-5--7----7---9-7----7---9-7-|
Eb|---------------55---------55---------|

Gb|-----|-----|-----|
Db|-----|-----|-----|
Ab|-3~--|-7~--|-----|
Eb|-----|-----|-5~--|
            
Submit corrections



        Kaliwete lessons Hard to play? Try these video lessons and learn fast Kaliwete lessons
        
↑ Back to top | Tablatures and chords for acoustic guitar and electric guitar, ukulele, drums are parodies/interpretations of the original songs. You may use it for private study, scholarship, research or language learning purposes only