Home » E » Entombed »

Entombed - Wolverine Blues Tabs

Artists:  A B C D E F G H I J K L M N O P Q R S T U V W X Y Z # 

Wolverine Blues Tabs

(ver. 1) Click to play this song!
Entombed
 Rating:
4/5 (4 votes)
                Band- Entombed
Song- Wolverine Blues

Tuning: Drop D down 2 whole steps (Bb F Bb Eb G C)

Intro: (feedback) 
C|----------------------------| 
G|----------------------------| 
E|----------------------------| 
G|----------------------------| 
F|-1-0--3-4--1-0----5-5--1-1--| 
B|-1-0--3-4--1-0--0-0-0--1-1--|

Verse:
C|------------------------------|-------------------------------| 
G|------------------------------|-------------------------------| 
E|------------------------------|-------------------------------| 
B|------------------0----0------|------------------0----0-0-0-0-| 
F|-1-0--3-4----0----0----0------|-1-0--3-4----0----0----0-0-0-0-| 
B|-1-0--3-4--0-0--0-0--0-0--0-0-|-1-0--3-4--0-0--0-0--0-0-0-0-0-|

Pre Chorus:
C|---------------| 2x
G|---------------|
E|---------------|
B|---------------|
F|1--4/0--1--4/0-|
B|1--4/0--1--4/0-|

Chorus:
e|------------------------------------------------------|2x 
B|------------------------------------------------------| 
G|------------------------------------------------------| 
D|------------------------------------------------------| 
A|-5---4--3---2-------------5---4-4-3-3--2-5-6-6-5-3-0--| 
E|--------------5-6--5-3-0-----------------5-6-6-5-3-0--|

Verse:
C|------------------------------|-------------------------------| 
G|------------------------------|-------------------------------| 
E|------------------------------|-------------------------------| 
B|------------------0----0------|------------------0----0-0-0-0-| 
F|-1-0--3-4----0----0----0------|-1-0--3-4----0----0----0-0-0-0-| 
B|-1-0--3-4--0-0--0-0--0-0--0-0-|-1-0--3-4--0-0--0-0--0-0-0-0-0-|

Pre Chorus:
C|---------------| 2x
G|---------------|
E|---------------|
B|---------------|
F|1--4/0--1--4/0-|
B|1--4/0--1--4/0-|

Chorus:
e|------------------------------------------------------|2x 
B|------------------------------------------------------| 
G|------------------------------------------------------| 
D|------------------------------------------------------| 
A|-5---4--3---2-------------5---4-4-3-3--2-5-6-6-5-3-0--| 
E|--------------5-6--5-3-0-----------------5-6-6-5-3-0--|

Finally: (replaces last bar on chorus
e|-----------------------------------------------------------------------------| 
B|-----------------------------------------------------------------------------| 
G|-----------------------------------------------------------------------------| 
D|-----------------------------------------------------------------------------| 
A|-5---4--3---2-------------5---4-4-3-3--2-0-5-6-6-3---0-5-6-6-3---0-5-6-6-3-0-| 
E|--------------5-6--5-3-0-----------------0-5-6-6-3---0-5-6-6-3---0-5-6-6-3-0-|
            
Submit corrections

↑ Back to top | Tablatures and chords for acoustic guitar and electric guitar, ukulele, drums are parodies/interpretations of the original songs. You may use it for private study, scholarship, research or language learning purposes only