» » »

Enter Shikari - When A Jealous Man Finds A Gun Tabs

Artists:  A B C D E F G H I J K L M N O P Q R S T U V W X Y Z # 

When A Jealous Man Finds A Gun Tabs

(ver. 1) Click to play this song!
Enter Shikari
 Rating:
4/5 (4 votes)

 When A Jealous Man Finds A Gun lessons Tabs too difficult? Try these video lessons and learn fast
 
                ---------------------------------------------------------------------------------------------|

Tuning: Dropped-D (DADGBE)


Main Riff:
E|------------------------------------------------------|
B|----------10------------10-------------10-------------|
G|-----------x--------------x---------------x-----------|
D|--7-7----0-7----7-7----0-7------7-7---0-7---7---------|
A|--5-5------------5-5--------------5-5----------5------|
D|------------------------------------------------------|

E|-------------------------------------------------------------|
B|----------10------------10--------------15----------10-------|
G|-----------x--------------x----------------x------------x----|
D|--7-7----0-7----7-7----0-7------4-4---0-12---7-7---0-7-------|
A|--5-5------------5-5--------------2-2-----------5-5----------|
D|-------------------------------------------------------------|

E|--------------------------------------------------------------------------|
B|----------10------------10--------------15---7t-3-5-7t-3-5-7t-3-5-8t------|
G|-----------x--------------x----------------x------------------------------|
D|--7-7----0-7----7-7----0-7------4-4---0-12--------------------------------|
A|--5-5------------5-5--------------2-2-------------------------------------|
D|--------------------------------------------------------------------------|


E||-----------------------------------------------------------------|
B||O----------10------------10--------------15----------10--O-------|
G||------------x--------------x----------------x------------x-------|
D||---7-7----0-7----7-7----0-7------4-4---0-12---7-7---0-7----------|
A||O--5-5------------5-5--------------2-2-----------5-5---------O---|
D||-----------------------------------------------------------------|

Verse:
                   PM--| PM--| PM----------|    x4
E||----------------------------------------|
B||O-----------------------------------O---|
G||---------------------6-----6-----6------|
D||--------4-------------------------------|
A||O--4h5----5-4h5--0-0---0-0---0-0----O---|
D||----------------------------------------|

Chorus:
E||-------------------------------------------|
B||O------------------------------------------|
G||--7-7--7-7--4-4--4-4-----------------------|
D||--7-7--7-7--4-4--4-4--5-5--5-5--7-7--7-7---|
A||O-5-5--5-5--2-2--2-2--5-5--5-5--7-7--7-7---|
D||----------------------5-5--5-5--7-7--7-7---|

E|---------------------------------------------||
B|--------------------------------------------O||
G|--7-7--7-7--4-4--4-4-------------------------||
D|--7-7--7-7--4-4--4-4--5-5--5-5--7--x--x--x---||
A|--5-5--5-5--2-2--2-2--5-5--5-5--7--x--x--x--O||
D|----------------------5-5--5-5--7--x--x--x---||

Main Riff
Verse
Chorus

Bridge:
E|------------------------------------------------------|
B|----------10------------10-------------10-------------|
G|-----------x--------------x---------------x-----------|
D|--7-7----0-7----7-7----0-7------7-7---0-7---7---------|
A|--5-5------------5-5--------------5-5----------5------|
D|------------------------------------------------------|

E||----------------------------------------------------------------|
B||O----------10------------10--------------15----------10-O-------|
G||------------x--------------x----------------x------------x------|
D||---7-7----0-7----7-7----0-7------4-4---0-12---7-7---0-7---------|
A||O--5-5------------5-5--------------2-2-----------5-5--------O---|
D||----------------------------------------------------------------|

E|-----------------------------|
B|-----------------------------|
G|-----------------------------|
D|--x-x-----5----------:REST:--|
A|--x-x-4h5---5-4h5------------|
D|-----------------------------|

E||------------------------------------------------------------------||
B||O----------------------------------------------------------------O||
G||------------------------------------------------------------------||
D||--------4---------------5---------------5---------------4-5-4-----||
A||O--4h5----5-4h5---5-4h5---5-4h5---5-4h5---5-4h5---5-4h5-------5--O||
D||------------------------------------------------------------------||

(clean guitar)
E|---------------2------0---|---2------2------5------2---|
B|-3------3------3------3---|---3------3------3------3---|
G|-2------2------2------2---|---2------4------2------2---|
D|-0------2------0------2---|---0------4------0------0---|
A|--------------------------|----------------------------|
D|--------------------------|----------------------------|

E|---2--2-0---0-2-0-5--5-3-2-7-5-3-2--2-0---0-2-0-5--5-3-2-7-5-3----|
B|----------3-----------------------------3-------------------------|
G|------------------------------------------------------------------|
D|------------------------------------------------------------------|
A|------------------------------------------------------------------|
D|------------------------------------------------------------------|

(Distorted guitar)
E||---------------------------|----------------------|
B||O--------------------------|----------------------|
G||--------------11-----------|----------11----------|
D||--11h12-11h12----12-11h12--|-12-11h12----12-11h12-|
A||O--------------------------|----------------------|
D||---------------------------|----------------------|

E|--------------------------|------------------------||
B|--------------------------|-----------------------O||
G|-------------11-----------|----------11-12-11------||
D|-11h12-11h12----12-11h12--|-12-11h12----------12---||
A|--------------------------|-----------------------O||
D|--------------------------|------------------------||


Breakdown:
E|----------------------------------------------|
B|----------------------------------------------|
G|----------------------------------------------|
D|----------------------------------------------|
A|-0---0---0---0--0--0--0--0-0-0-0-0-0-0-0-5*---|
D|-0---0---0---0--0--0--0--0-0-0-0-0-0-0-0------|

                                       x4
E||------------------|-----------------||
B||O-----------------|----------------O||
G||------------------|-----------------||
D||------------------|-----8--8--8-----||
A||O-0-0-1h0-0-1h0-0-|-0-0-6--6--6----O||
D||--0-0-1h0-0-1h0-0-|-0-0-------------||

E|----------------|---------------------------------|-----------------|
B|----------------|---------------------------------|-----------------|
G|----------------|------5*---5*------------8-8-8--|------------------|
D|----------------|--------4*---4*----------8-8-8--|------------------|
A|--0-0--1h0-0-0--|-0-0-------------1h0-0-0---------|-0-0--1---0-0----|
D|--0-0--1h0-0-0--|-0-0-------------1h0-0-0---------|-0-0--1---0-0----|

E|--------------------------------------|
B|----------------------------------O---|
G|-----5*---5*------------8-8-8---------|
D|-------4*---4*----------8-8-8---------|
A|-0-0------------1h0-0-0-----------O---|
D|-0-0------------1h0-0-0---------------|


E| -------------------||
B|--------------------||
G|--------------------||
D|--------------------||
A|-0-0----------------||
D|-0-0----------------||

* = natural harmonic
/ = slide down

matt
xx
            
Submit corrections


        When A Jealous Man Finds A Gun lessons Hard to play? Try these video lessons and learn fast When A Jealous Man Finds A Gun lessons
        
↑ Back to top | Tablatures and chords for acoustic guitar and electric guitar, ukulele, drums are parodies/interpretations of the original songs. You may use it for private study, scholarship, research or language learning purposes only