Home » E » Enter Shikari »

Enter Shikari - Ok Time For Plan B Tabs

Artists:  A B C D E F G H I J K L M N O P Q R S T U V W X Y Z # 

Ok Time For Plan B Tabs

(ver. 1) Click to play this song!
Enter Shikari
 Rating:
4/5 (4 votes)
                okay this is the tab for the original version of the song but ive included the fills 
the new version aswell. im not too sure about all of them though

INTRO:
e-------|
b-------|
g-------|    X28
d-----9-|
a-----8-|
d-----9-|

Verse:
e------------------------------|
b------------------------------|
g------------------------------|
d-----22222-22222--00000-00000-|  repea until chorus
a-----22222-22222--00000-00000-|
d-----22222-22222--00000-00000-|

===============================
verse fill from new version
e-------5---------------|
b---------5/7/8\7/88\7--|
g-----------------------|
d-----------------------|
a-----------------------|
d-----------------------|
and inbetween
e------------------|
b------------------|
g------------------|
d-----2222---------|
a-----2222---------|
d-----2222 you go--|

e----------------------|
b-----7777888810101010-|
g-----999999999999-----|
d----------------------|
a----------------------|
d----------------------|
=========================

Chorus chords

look what youve...
e--------|
b--------|
g------9-|
d------x-|
a------7-|
d--------|
self..
e----------|
b----------|
g------14--|
d------x---|
a------12--|
d----------|
youve lost..
e---------|
b---------|
g------12-|
d------x--|
a-----10--|
d---------|

VERSE 2 the same as verse one

Bridge
(time has come_
e-------------|
b-------------|
g-----9/--14--|
d-----x/--x---|
a-----7/--12--|
d-------------|
to think again (etc)
e------------------------------------------------------|
b------------------------------------------------------|
g----9-999-/12-121212-12/=14\-11--11111111-11-11111111-|
d----x-xxx-/x-xxx------x/--x\--x--xxxxxxxx-xxxxxxxxxxx-|
a----7-777-/10-101010--10/12\--9--9-9-9-9--9-9-9-9-9---|
d------------------------------------------------------|

BRIDGE2
e------------------|
b------------------|
g------------------|
d-------22222------|
a-------22222------|     "OK, TIME FOR PLAN B / THIS MEANS WAR"
d-------22222------|
everyone freezes and waits for the earth to move
e-------/\/\
b-------/\/\
g-------/\/\
d-------/\/\
a-------/\/\
d-------/\/\

e---------------------|
b---------------------|
g---------------------|
d---------------------|
a-------00--00-00-/12-|(slow)\
d-------00--00-00-/12-|(slow)\
carry this on till the end
            
Submit corrections

↑ Back to top | Tablatures and chords for acoustic guitar and electric guitar, ukulele, drums are parodies/interpretations of the original songs. You may use it for private study, scholarship, research or language learning purposes only