» » »

Enrique Iglesias - Tired Of Being Sorry Tabs

Artists:  A B C D E F G H I J K L M N O P Q R S T U V W X Y Z # 

Tired Of Being Sorry Tabs

(ver. 3) Click to play this song!
Enrique Iglesias
 Rating:
4/5 (4 votes)

 Tired Of Being Sorry lessons Tabs too difficult? Try these video lessons and learn fast
 
                (Intro)

------------------------------------------------|
-8---8---8-9-8-6----6---------------------------|
------------------8-----------------------------|
------------------------------------------------|
------------------------------------------------|
------------------------------------------------|

-8--8--8--8-h9-8--6-----------------------------|
--------------------8--5------------------------|
------------------------------------------------|
------------------------------------------------|
------------------------------------------------|
------------------------------------------------|


-8—-h6—-6--h4-----------------------------------|
-9--h8--8--h6---------3--h4-h6-h4-----3h4h3-----|
------------------------------------------------|
------------------------------------------------|
------------------------------------------------|
------------------------------------------------|
            
Submit corrections


        Tired Of Being Sorry lessons Hard to play? Try these video lessons and learn fast Tired Of Being Sorry lessons
        
↑ Back to top | Tablatures and chords for acoustic guitar and electric guitar, ukulele, drums are parodies/interpretations of the original songs. You may use it for private study, scholarship, research or language learning purposes only