» » »

Elvis Presley - Only The Strong Survive Bass

Artists:  A B C D E F G H I J K L M N O P Q R S T U V W X Y Z # 

Only The Strong Survive Bass

(ver. 1) Click to play this song!
Elvis Presley
 Rating:
4/5 (4 votes)


 Only The Strong Survive lessons Tabs too difficult? Try these video lessons and learn fast
 
                Only the Strong Survive
Elvis Presley
Bass Tab
Bassist: Mike Leech or Tommy Cogbill

120BPM, 4/4

Verse
                                                     6x
||------------|-----------|-----------|--------------|| *Last time
||o---6----6--|---6----6--|---6----6--|---6----6----o||
||o-----------|-----------|-----------|----------6*-o||
||------------|-----------|-----------|--------------||

Chorus (132BPM)

|-----------------|-----------------|-----------------|-----------------|
|-6-6-----6-6-----|-6-6-----6-6-----|-8-8-----8-8-----|-8-8-----8-8-----|
|-----6-6-----6-6-|-----6-6-----6-6-|-----8-8-----8-8-|-----8-8-----8-8-|
|-----------------|-----------------|-----------------|-----------------|

|-------5------|-6-x-5-8----|
|-8---6------6-|------------|
|---8----------|------------|
|--------------|------------|

Verse (120BPM)
                                                     4x
||------------|-----------|-----------|--------------|| *Last time
||o---6----6--|---6----6--|---6----6--|---6----6----o||
||o-----------|-----------|-----------|----------6*-o||
||------------|-----------|-----------|--------------||

Chorus (132BPM)

|-----------------|-----------------|-----------------|-----------------|
|-6-6-----6-6-----|-6-6-----6-6-----|-8-8-----8-8-----|-8-8-----8-8-----|
|-----6-6-----6-6-|-----6-6-----6-6-|-----8-8-----8-8-|-----8-8-----8-8-|
|-----------------|-----------------|-----------------|-----------------|

|-------5------|-6---5-8----|
|-8---6------6-|---6--------|
|---8----------|------------|
|--------------|------------|

Verse (120BPM)

||------------|-----------|-----------|--------------|| *Last time
||o---6----6--|---6----6--|---6----6--|---6----6----o||
||o-----------|-----------|-----------|----------6*-o||
||------------|-----------|-----------|--------------||

Chorus (132BPM)

||------------------|-----------------|-----------------|-----------------|
||o-6-6-----6-6-----|-6-6-----6-6-----|-8-8-----8-8-----|-8-8-----8-8-----|
||o-----6-6-----6-6-|-----6-6-----6-6-|-----8-8-----8-8-|-----8-8-----8-8-|
||------------------|-----------------|-----------------|-----------------|

|-------5------|-6---5-8-----|-----------------|---------------||
|-8---6------6-|---6---------|-6-6-----6-6-----|-6----------5-o||
|---8----------|-----------6-|-----6-6-----6-6-|---3--6--8----o||
|--------------|-------------|-----------------|---------------||

|-----------------|-----------------|-----------------|-----------------|
|-6-6-----6-6-----|-6-6-----6-6-----|-8-8-----8-8-----|-8-8-----8-8-----|
|-----6-6-----6-6-|-----6-6-----6-6-|-----8-8-----8-8-|-----8-8-----8-8-|
|-----------------|-----------------|-----------------|-----------------|

|-----------------|-----------------|-----------------|--------------|
|-8-8-----8-8-----|-8-8-----8-8-----|-6-6-----6-6-----|-6----------5-|
|-----8-8-----8-8-|-----8-8-----8-8-|-----6-6-----6-6-|---3--6--8----|
|-----------------|-----------------|-----------------|--------------| &fade
            
Submit corrections



        Only The Strong Survive lessons Hard to play? Try these video lessons and learn fast Only The Strong Survive lessons
        
↑ Back to top | Tablatures and chords for acoustic guitar and electric guitar, ukulele, drums are parodies/interpretations of the original songs. You may use it for private study, scholarship, research or language learning purposes only