» » »

Elvis Presley - Devil In Diguise Tabs

Artists:  A B C D E F G H I J K L M N O P Q R S T U V W X Y Z # 

Devil In Diguise Tabs

(ver. 1) Click to play this song!
Elvis Presley
 Rating:
4/5 (4 votes)

 Devil In Diguise  lessons Tabs too difficult? Try these video lessons and learn fast
 
                Intro :

   Bb            C               F
|--6----6-6---|--8-----8-8----|--8-----|
|--6----6-6---|--8-----8-8----|--10----|
|--7--7-----7-|--9--9------9--|--10----|
|--8--8-----8-|--10-10-----10-|--10----|
|-------------|---------------|--8-----|
|-------------|---------------|--------|


(Riff 1) Palm-mute:

  F
|------------8-----------|
|-----10--10---10--------|
|-----10----------10-----| (x4)
|-----10-------------10--|
|-8----------------------|
|------------------------|

(Riff 2) Palm-mute:
  
  Bb
|-----------10-6------|
|------6--6------6----|
|------7-----------7--| (x2)
|--8---8--------------|
|---------------------|
|---------------------|

(Riff 3) Palm-mute:

  C7                    F
|---------8-12-8------|--------|
|------8---------8----|--------|
|------9-----------9--|--------|
|--10--10-------------|--10----|
|---------------------|--------|
|---------------------|--------|

(Riff 4):

  F                    
|-----13----13----13----13-----|
|--13-13----13----13----13-----|
|--14----14----14----14----14--|
|--------15----15----15----15--|
|------------------------------|
|------------------------------|

(Riff 5) 
  
  Dm                    
|-----13----13----13----13-----|
|--15-15----15----15----15-----|
|--14----14----14----14----14--|
|--------15----15----15----15--|
|------------------------------|
|------------------------------|


    F (Riff 1)
You look like an angel, walk like an angel
Bb (Riff 2)                   C (Riff 3)
Talk like an angel, but I got wise


                       F (Riff 4)
You're the devil in disguise
           Dm (Riff 5)
Oh yes you are
                F (Riff 4)     Dm (Riff 5)
The devil in disguise     (Mm  hm)


F (Riff 4)
You fooled me with your kisses
Dm (Riff 5)
You cheated and you schemed
F (Riff 4)           Dm (Riff 5)
Heaven knows how you lied to me
       Bb      C       F (Intro)
You're not the way you seemed


    F (Riff 1)
You look like an angel, walk like an angel
Bb (Riff 2)                   C (Riff 3)
Talk like an angel, but I got wise


                       F (Riff 4)
You're the devil in disguise
           Dm (Riff 5)
Oh yes you are
                F (Riff 4)     Dm (Riff 5)
The devil in disguise     (Mm  hm)

F (Riff 4)
I thought that I was in Heaven
Dm (Riff 5)
But I was sure surprised
F (Riff 4)        Dm (Riff 5)
Heaven help me, I didn't see
    Bb    C       F (Intro)
The devil in your eyes

    F (Riff 1)
You look like an angel, walk like an angel
Bb (Riff 2)                   C (Riff 3)
Talk like an angel, but I got wise



                       F (Riff 4)
You're the devil in disguise
           Dm (Riff 5)
Oh yes you are
                F (CODA)     
The devil in disguise     


   F (CODA

|-----8----8----8----8-----|
|--10---10---10---10---10--|
|--10---10---10---10---10--|
|--------------------------|
|--------------------------|
|--------------------------|

SOLO

  Dm                  F                   F                    Dm
|-3/5—3h5—3h5—3h5p3-|-3h5--1------------|--------------------|-1-----1-----1-|
|-------------------|---------4h6--1--1-|-3p1--1----------1—1h3--1/3---1/3---|
|-------------------|-------------------|--------1p0----2----|---------------|
|-------------------|-------------------|-------------3------|---------------|
|-------------------|-------------------|--------------------|---------------|
|-------------------|-------------------|--------------------|---------------|

  Dm                          F
|---------13----------------|------------------------------------------------|
|-13h15-------16h18---16h18-|-13---------------------------------------------|
|---------------------------|-----------13-15—----15b17p15p13------13—15--—13h
|---------------------------|------15--------------------------15------------|
|---------------------------|------------------------------------------------|
|---------------------------|------------------------------------------------|

  Dm                              Bb                C                  F
|-------------------------------|-10----------------12--12-12--12-12-|-13----|
|-------------------------------|-11--11-11--11-11--13--13-13--13-13-|-13----|
h14-----10-----10--------10--12-|-10--10-10--10-10--12---------------|-14----|
|----15-----12--------12--------|------------------------------------|-------|
|-------------------------------|------------------------------------|-------|
|-------------------------------|------------------------------------|-------|



                       F (Riff 4)
You're the devil in disguise
           Dm (Riff 5)
Oh yes you are
                F (Riff 4)     
The devil in disguise     

           Dm (Riff 5)
Oh yes you are
                F (Riff 4)     
The devil in disguise...     

(Repeat w/vocal ad lib. and fade)
            
Submit corrections


        Devil In Diguise  lessons Hard to play? Try these video lessons and learn fast Devil In Diguise  lessons
        
↑ Back to top | Tablatures and chords for acoustic guitar and electric guitar, ukulele, drums are parodies/interpretations of the original songs. You may use it for private study, scholarship, research or language learning purposes only