» » »

Elevation Worship - Tabs

Artists:  A B C D E F G H I J K L M N O P Q R S T U V W X Y Z # 

Tabs

(ver. 3) Click to play this song!
Elevation Worship
 Rating:
4.3/5 (6 votes)

  lessons Tabs too difficult? Try these video lessons and learn fast
 
                [Intro]
e|---------------------------------------------------------------------------|
B|---------------------------------------------------------------------------|
G|---------------------------------------------------------------------------| X4
D|--6-6-6-8-8-8-3-3-3-3-3-3-3-3----------------------------------------------|
A|--7-7-7-9-9-9-5-5-5-5-5-5-5-5----------------------------------------------|
E|---------------------------------------------------------------------------|

[Verse 1]
e|---------------------------------------------------------------------------|
B|---------------------------------------------------------------------------|
G|---------------------------------------------------------------------------|
D|--6-6-6-8-8-8-3-3-3-3-3-3-3-3----------------------------------------------|
A|--7-7-7-9-9-9-5-5-5-5-5-5-5-5----------------------------------------------|
E|---------------------------------------------------------------------------|

PM---------------------------------------------------------------------------

[Chorus]
e|---------------------------------------------------------------------------|
B|---------------------------------------------------------------------------|
G|---16\15-------------16/15-------------------------------------------------|
D|---------16------------------16--------------------------------------------|
A|--------------18--------------------18--15---------------------------------|
E|---------------------------------------------------------------------------|

[Verse 2]
e|---18b~-16~------------18~-14~---------------------------------------------|
B|---------------------------------------------------------------------------|
G|------------19-------------------------------------------------------------|
D|---------------------------------------------------------------------------|
A|----------------19---------------------------------------------------------|
E|---------------------------------------------------------------------------|            
Submit corrections


         lessons Hard to play? Try these video lessons and learn fast  lessons
        
↑ Back to top | Tablatures and chords for acoustic guitar and electric guitar, ukulele, drums are parodies/interpretations of the original songs. You may use it for private study, scholarship, research or language learning purposes only