» » »

Electric Six - Rock And Roll Evacuation Bass

Artists:  A B C D E F G H I J K L M N O P Q R S T U V W X Y Z # 

Rock And Roll Evacuation Bass

(ver. 1) Click to play this song!
Electric Six
 Rating:
4/5 (4 votes)


 Rock And Roll Evacuation lessons Tabs too difficult? Try these video lessons and learn fast
 
                -------------------------------------------------------------------------------
                       Rock and Roll Evacuation - Electric Six
-------------------------------------------------------------------------------

Tuning:Standard


Intro/Verse 1
G|--------------------------------------------------------------------------|
D|--------------------------------------------------------------------------|
A|---------------------2--2-2-----------------------------------------------|
E|--4--44--4-4--44444----------0--0--0-0000---------------------------------|

G|--------------------------------------------------------------------------|
D|--------------------------------------------------------------------------|
A|---------------------2--2-2-----------------------------------------------|
E|--4--44--4-4--44444----------0-0-0-0-0-0-0-0------------------------------|

G|--------------------------------------------------------------------------|
D|--------------------------------------------------------------------------|
A|---------------------2--2-2-----------------------------------------------|
E|--4--44--4-4--44444----------0--0--0-0000---------------------------------|

G|--------------------------------------------------------------------------|
D|--------------------------------------------------------------------------|
A|---------------------2--2-2--7-7-7-7-7-7-7-7-7----------------------------|
E|--4--44--4-4--44444-------------------------------------------------------|

Chorus
G|--------------------------------------------------------------------------|
D|--------------------------------------------------------------------------|
A|--2-2-2-2-2-2-2-4-4-4-4-4-4-4---------------------------------------------|
E|------------------------------0-0-0-0-0-0-0-0-0-0-0-0-0-0-0-0-------------|

G|--------------------------------------------------------------------------|
D|--------------------------------------------------------------------------|
A|--2-2-2-2-2-2-2-4-4-4-4-4-4-4-7-7-7---7-7-7---7-7-7---7-0-----------------|
E|------------------------------------7-------7-------7---------------------|

G|--------------------------------------------------------------------------|
D|--------------------------------------------------------------------------|
A|--2-2-2-2-2-2-2-4-4-4-4-4-4-4---------------------------------------------|
E|------------------------------0-0-0-0-0-0-0-0-0-0-0-0-0-0-0-0-------------|
                                 Chorus B
G|--------------------------------------------------------------------------|
D|--------------------------------------------------------------------------|
A|--2-2-2-2-2-2-2-4-4------------Guitar Break-------Guitar Break------------|
E|---------------------2-2--------------------------------------------------|


G|--------------------------------------------------------------------------|
D|--------------------------------------------------------------------------|
A|---------------2----------------------------------------------------------|
E|--4--4--4-4-44---2--------------------------------------------------------|


Verse

Chorus

Chorus B2
G|--------------------------------------------------------------------------|
D|--------------------------------------------------------------------------|
A|---------------2-----------------2----------------------------------------|
E|--4--4--4-4-44---2--4--4--4-4-44---2--------------------------------------|

Bridge
G|--------------------------------------------------------------------------|
D|--------------------------------------------------------------------------|
A|--------------------------------------------------------------------------|
E|--4--------0--------2--------4--------0--------2---------4-4-4-4-4-4-4-4--|

G|--------------------------------------------------------------------------|
D|--------------------------------------------------------------------------|
A|--------------------------------------------------------------------------|
E|4-4-4-4-4-4-4-4-0-0-0-0-0-0-0-0-2-2-2-2-2-2-2-2-4-4-4-4-4-4-4-4-4-4-4-4---|

G|--------------------------------------------------------------------------|
D|--------------------------------------------------------------------------|
A|--------------------------------------------------------------------------|
E|4-4-4-4-0-0-0-0-0-0-0-0-2-2-2-2-2-2-2-2-2-2-2-2-2-2-2-2-------------------|

Solo
G|-----------------------------------------------------------------------|
D|-----------------------------------------------------------------------| X4
A|--------------------------2-2-4-4-4-4-4-4-4-4-----------2--------------|
E|--4-4-4-4-4-4-4-4-4-4-4-4---------------------2-2-2-2-2----------------|

Chorus B2

Verse
Except Last bar is
                       You don't know...
G|--------------------------------------------------------------------------|
D|--------------------------------------------------------------------------|
A|---------------------2-------7-7-7-7-7-7-7-7-7----------------------------|
E|--4--44--4-4--44444-------------------------------------------------------|

Chorus

Chorus B2 X2



| /  slide up
| \  slide down
| h  hammer-on
| p  pull-off
| ~  vibrato
| +  harmonic
| x  Mute note
===============================================================================
            
Submit corrections



        Rock And Roll Evacuation lessons Hard to play? Try these video lessons and learn fast Rock And Roll Evacuation lessons
        
↑ Back to top | Tablatures and chords for acoustic guitar and electric guitar, ukulele, drums are parodies/interpretations of the original songs. You may use it for private study, scholarship, research or language learning purposes only