» » »

Electric Six - Nuclear War On The Dance Floor Bass

Artists:  A B C D E F G H I J K L M N O P Q R S T U V W X Y Z # 

Nuclear War On The Dance Floor Bass

(ver. 1) Click to play this song!
Electric Six
 Rating:
4/5 (4 votes)


 Nuclear War On The Dance Floor lessons Tabs too difficult? Try these video lessons and learn fast
 
                -------------------------------------------------------------------------------
                             Nuclear War (On The Dance Floor) - Electric Six
-------------------------------------------------------------------------------
Album:Fire

Tuning:Standard


Intro A         Intro B      Intro C
G|-------|      G|--------|  G|------------------------------------------|
D|-------| X24  D|--------|  D|------------------------------------------| X4
A|--4----|      A|--4--2--|  A|----------------------4--4-4-44-4-4-------|
E|-------|      E|--------|  E|--------5-5-5-5-5-5-5---------------------|

Verse A
G|--------------------------------------------------------------------------|
D|----------------------------------------------------4-6-4--4-6-4----------|
A|----------------------4--4-4-44-4-4---------------4-----------------------|
E|--------5-5-5-5-5-5-5---------------5-5-5-5-5-5-5-------------------------|

G|--------------------------------------------------------------------------|
D|--------------------------------------------------------------------------|
A|----------------------4--4-4-44-4-4---------------4--4-4-44-4-4-----------|
E|--------5-5-5-5-5-5-5---------------5-5-5-5-5-5-5-------------------------|

Verse B
G|--------------------------------------------------------------------------|
D|--------------------------------------------------------------------------|
A|--------2-2-2-3-3-3-4-4-4--------2-2-2-3-3-3-4-4-4-------2-2-2-3--3-4-4-4-|
E|--5-5-5--------------------5-5-5--------------------5--5------------------|

G|--------------------------------------------------------------------------|
D|--------------------------------------------------------------------------|
A|-------2-2-2-3--3-4-4-4--4--4-44-4--4--2----------------------------------|
E|--5--5--------------------------------------------------------------------|

Verse A

Intro C X4

Outro
G|--------------------------------------------------------------------------|
D|--------------------------------------------------------------------------|
A|--------2-2-2-3-3-3-4-----------------------------------------------------|
E|--5-5-5-------------------------------------------------------------------|




| /  slide up
| \  slide down
| h  hammer-on
| p  pull-off
| ~  vibrato
| +  harmonic
| x  Mute note
===============================================================================
            
Submit corrections



        Nuclear War On The Dance Floor lessons Hard to play? Try these video lessons and learn fast Nuclear War On The Dance Floor lessons
        
↑ Back to top | Tablatures and chords for acoustic guitar and electric guitar, ukulele, drums are parodies/interpretations of the original songs. You may use it for private study, scholarship, research or language learning purposes only