» » »

Electric Six - Jimmy Carter Bass

Artists:  A B C D E F G H I J K L M N O P Q R S T U V W X Y Z # 

Jimmy Carter Bass

(ver. 1) Click to play this song!
Electric Six
 Rating:
4/5 (4 votes)


 Jimmy Carter lessons Tabs too difficult? Try these video lessons and learn fast
 
                -------------------------------------------------------------------------------
                          Jimmy Carter - Electric Six
-------------------------------------------------------------------------------

Tuning:Standard

Distortion/Overdrive, Ping Pong/Stereo Delay

Verse 1 (0:27)Clean
G|--------------------------------------------------------------------------|
D|--------------------------------------------------------------------------|
A|--------------------------------------------------------------------------|
E|--3--------/10--------5--------3--------/10--------5----------------------|

Verse 2 (1:06)Distortion, Delay
G|--------------------------------------------------------------------------|
D|--------------------------------------------------------------------------|
A|--------------------------------------------------------------------------|
E|--3--------/10--------5--------3--------/10--------5----------------------|

G|-----------------------------------------------------------------------|
D|-----------------------------------------------------------------------| X2
A|-----------------------------------------------------------------------|
E|-7-7-7-9-10--------3-3-3-2-0--------7-7-7-9-10--------3-3-3-2-0--------|

Verse 2 (2:17)

Outro (3:06) Clean
G|--------------------------------------------------------------------------|
D|--------------------------------------------------------------------------|
A|--------------------------------------------------------------------------|
E|--10--------10--------10--------10--------10--------10--------10----------|


| /  slide up
| \  slide down
| h  hammer-on
| p  pull-off
| ~  vibrato
| +  harmonic
| x  Mute note
===============================================================================
            
Submit corrections



        Jimmy Carter lessons Hard to play? Try these video lessons and learn fast Jimmy Carter lessons
        
↑ Back to top | Tablatures and chords for acoustic guitar and electric guitar, ukulele, drums are parodies/interpretations of the original songs. You may use it for private study, scholarship, research or language learning purposes only