» » »

Electric Six - Dance Epidemic Bass

Artists:  A B C D E F G H I J K L M N O P Q R S T U V W X Y Z # 

Dance Epidemic Bass

(ver. 1) Click to play this song!
Electric Six
 Rating:
4/5 (4 votes)


 Dance Epidemic lessons Tabs too difficult? Try these video lessons and learn fast
 
                -------------------------------------------------------------------------------
                          Dance Epidemic - Electric Six
-------------------------------------------------------------------------------

Tuning:Standard


Verse
G|-----------------------------------------------------------------------|
D|-----------------------------------------------------------------------| X6
A|-----22-33-5-----------------------------------------------------------|
E|--0-----------55-33----------------------------------------------------|

Pre-Chorus
"Still on my mind"
G|--------------------------------------------------------------------------|
D|--------------------------------------------------------------------------|
A|------3h5-----3h5-----3h5-2-2---------3h5-----3h5-----3h5-2-2-------------|
E|--0-0-----0-0-----0-0---------3-3-0-0-----0-0-----0-0---------3-3---------|

G|--------------------------------------------------------------------------|
D|----7---7---7---7---9---9---10--------------------------------------------|
A|--------------------------------------------------------------------------|
E|--5---5---5---5---7---7---8----8\-----------------------------------------|

Chorus
G|-----------------------------------------------------------------------|
D|-----------------------------------------------------------------------| X4
A|----------2-2-3-3-5-5-5-5----------------------------------------------|
E|--0-0-0-0-----------------3-3-2-2--------------------------------------|

Verse X6

Pre Chorus

Chorus X4

Bridge
G|-----------------------------------------------------------------------|
D|-----------------------------------------------------------------------| X3
A|-----------3--3-3-33-3-------------------------------------------------|
E|--0--------------------3-----------------------------------------------|

G|--------------------------------------------------------------------------|
D|----7---7---7---7---9---9---10--------------------------------------------|
A|--------------------------------------------------------------------------|
E|--5---5---5---5---7---7---8----8\-----------------------------------------|

Solo
G|-----------------------------------------------------------------------|
D|-----------------------------------------------------------------------| X4
A|----------2-2-3-3-5-5-5-5----------------------------------------------|
E|--0-0-0-0-----------------3-3-2-2--------------------------------------|

Chorus (2:21)
G|--------------------------------------------------------------|
D|--------------------------------------------------------------|
A|-2-2-3-3-5-5-5-5----------------------------------------------|
E|-----------------3-3-2-2--------------------------------------|

G|-----------------------------------------------------------------------|
D|-----------------------------------------------------------------------| X3
A|----------2-2-3-3-5-5-5-5----------------------------------------------|
E|--0-0-0-0-----------------3-3-2-2--------------------------------------|

Outro
G|--------------------------------------------------------------------------|
D|--------------------------------------------------------------------------|
A|------3h5-----3h5-----3h5-2-2---------------------------------------------|
E|--0-0-----0-0-----0-0---------3-3-0---------------------------------------|


| /  slide up
| \  slide down
| h  hammer-on
| p  pull-off
| ~  vibrato
| +  harmonic
| x  Mute note
===============================================================================
            
Submit corrections



        Dance Epidemic lessons Hard to play? Try these video lessons and learn fast Dance Epidemic lessons
        
↑ Back to top | Tablatures and chords for acoustic guitar and electric guitar, ukulele, drums are parodies/interpretations of the original songs. You may use it for private study, scholarship, research or language learning purposes only