» » »

Electric Six - Dance-a-thon 2005 Bass

Artists:  A B C D E F G H I J K L M N O P Q R S T U V W X Y Z # 

Dance-a-thon 2005 Bass

(ver. 2) Click to play this song!
Electric Six
 Rating:
4/5 (4 votes)


 Dance-a-thon 2005 lessons Tabs too difficult? Try these video lessons and learn fast
 
                -------------------------------------------------------------------------------
                         Dance-A-Thon 2005 - Electric Six
-------------------------------------------------------------------------------

Tuning:Standard

Distortion/Overdrive

Verse (0:04)
G|-----------------|    G|------------------------|
D|-----------------| X6 D|------------------------| X4
A|-----------5-----|    A|-----------5-----3--5---|
E|--1----------5---|    E|--1----------5----------|

"25 contestants"
G|--------------------------------------------------------------------------|
D|--------------------------------------------------------------------------|
A|--3-3-3-3-5-5-5-5---------3-3-3-3-3-3-3-3-5-------------------------------|
E|------------------5-5-5-5-------------------------------------------------|

Chorus                    Synth Solo (Distortion)
G|-----------------|    G|--------------------------|
D|-----------------| X4 D|--------------------------| X4
A|-----------5-----|    A|-----------5-----3-3-5-5--|
E|--1----------5---|    E|--1----------5------------|

Verse 2
G|-----------------|    G|------------------------|
D|-----------------| X4 D|------------------------| X4
A|-----------5-----|    A|-----------5-----3--5---|
E|--1----------5---|    E|--1----------5----------|

"25 contestants"
G|--------------------------------------------------------------------------|
D|--------------------------------------------------------------------------|
A|--3-3-3-3-5-5-5-5---------3-3-3-3-3-3-3-3-5-------------------------------|
E|------------------5-5-5-5-------------------------------------------------|

Chorus 2                   Synth Solo (Distortion)
G|-----------------|    G|------------------------|
D|-----------------| X4 D|------------------------| X6
A|---------5----3-5|    A|---------5-----3-3-5-5--|
E|--1-1-1----5-----|    E|--1-1-1----5------------|

Outro
"I want to reach into"                         "Ever been to"
G|-------------------------------------|    G|-------------|
D|-------------------------------------| X4 D|-------------| 
A|--------------5-5--------------------|    A|-------------|
E|--1-1-1-1-1-1-----5-5-5-5-5-5-5-5----|    E|--1----------|


| /  slide up
| \  slide down
| h  hammer-on
| p  pull-off
| ~  vibrato
| +  harmonic
| x  Mute note
===============================================================================
            
Submit corrections



        Dance-a-thon 2005 lessons Hard to play? Try these video lessons and learn fast Dance-a-thon 2005 lessons
        
↑ Back to top | Tablatures and chords for acoustic guitar and electric guitar, ukulele, drums are parodies/interpretations of the original songs. You may use it for private study, scholarship, research or language learning purposes only