» » »

Electric Six - Be My Dark Angel Bass

Artists:  A B C D E F G H I J K L M N O P Q R S T U V W X Y Z # 

Be My Dark Angel Bass

(ver. 1) Click to play this song!
Electric Six
 Rating:
4/5 (4 votes)


 Be My Dark Angel lessons Tabs too difficult? Try these video lessons and learn fast
 
                -------------------------------------------------------------------------------
                           Be My Dark Angel - Electric Six
-------------------------------------------------------------------------------

Tuning:Standard, Distortion

Intro (0:09)
G|-------------------------------------------------|
D|-------------------------------------------------| X4
A|---2--3/5-5-5-5----5/7-7-7-7---------------------|
E|--\-------------3--------------------------------|

Verse A
G|-------------------------------------------------|
D|-------------------------------------------------| X2
A|--2--3/5-5----5/7-7-2--3/5-5----5/7-7-7-7--------|
E|-----------3-----------------3-------------------|

Verse B
G|-------------------------------------------------------------------|
D|-------------------------------------------------------------------|
A|--2-2-2-3/5-5-5-5-------5/7-7-7-7-2-2-2-3/5-5-5-5-------5/7-7-7-7--|
E|------------------3-3-3---------------------------3-3-3------------|      

Chorus
G|-------------------------------------------------|
D|-------------------------------------------------| X3
A|--3-3-3-3-----------------5/7-7-7-7--------------|
E|----------5-5-5-5-3-3-3-3------------------------|

Verse B

Verse A X2

Verse B

Chorus X3

Verse B

Bridge
G|-------------------------------------------------------------------|      
D|-------------------------------------------------------------------| X2
A|----------------------------------5-5-5-5-5-5-5-5---------5-5-5-5--|
E|--0-0-0-0-0-0-0-0-2-2-2-2-2-2-2-2-----------------2-2-2-2----------|

G|--------------------------------------------------------------------|
D|--------------------------------------------------------------------|
A|----------------------------------5-5-5-5-5-5-5-5-5-5-5-5-5-5-5-5---|
E|--0-0-0-0-0-0-0-0-2-2-2-2-2-2-2-2---------------------------------7\|
____________________________________________________________________________
Live Smorgasbord plays the bridge like :

G|-------------------------------------------------------------------|      
D|-------------------------------------------------------------------| X2
A|----------------------------------5-5-5-5-5-5-5-5---------5-5-5-5--|
E|--0-0-0-0-0-0-0-0-2-2-2-2-2-2-2-2-----------------2-2-2-2----------|

G|--------------------------------------------------------------------|
D|--------------------------------------------------------------------|
A|--7-7-7-7-7-7-7-7-9-9-9-9-9-9-9-9-5-5-5-5-5-5-5-5-5-5-5-5-5-5-5-5---|
E|------------------------------------------------------------------7\|

Verse 3
G|-----------------------------------------------------------------------|
D|-----------------------------------------------------------------------| 
A|--2--3/5-5----5/7-7-2--3/5-5----5/7-7-2--3/5-5----5/7-7-2--3/5-5-------|
E|-----------3-----------------3-----------------3-----------------------|

G|-------------------|
D|-------------------|
A|-----5/7-7-7-7-----|
E|--3----------------|

Verse B X3

G|-------------------------------------------------------------------|
D|-------------------------------------------------------------------|
A|--2-2-2-3/5-5-5-5-------5/7-7-7-7-2-2-2-3/5-5-5-5-------5/7-7------|
E|------------------3-3-3---------------------------3-3-3------------| 


| /  slide up
| \  slide down
| h  hammer-on
| p  pull-off
| ~  vibrato
| +  harmonic
| x  Mute note
===============================================================================
            
Submit corrections



        Be My Dark Angel lessons Hard to play? Try these video lessons and learn fast Be My Dark Angel lessons
        
↑ Back to top | Tablatures and chords for acoustic guitar and electric guitar, ukulele, drums are parodies/interpretations of the original songs. You may use it for private study, scholarship, research or language learning purposes only