» » »

Editors - Open Your Arms Bass

Artists:  A B C D E F G H I J K L M N O P Q R S T U V W X Y Z # 

Open Your Arms Bass

(ver. 1) Click to play this song!
Editors
 Rating:
4/5 (4 votes)


 Open Your Arms lessons Tabs too difficult? Try these video lessons and learn fast
 
                (0:00)
G|--9---------------4-------------|--7---------------6-------------|
D|----------------6---------------|9---------------7---------------|
A|9-------------------------------|--------------------------------|
E|--------------------------------|--------------------------------|



(1:23)
G|--------------------------------|--------------------------------|
D|--------------------------------|--------------------------------|
A|7-7-7-7-7-7-7-7-7-7-7-7-7-7-5-5-|--------------------------------|
E|--------------------------------|7-7-7-7-7-7-7-7-5-5-5-5-5-5-5-5-|

G|--------------------------------|--------------------------------|
D|--------------------------------|--------------------------------|
A|7-7-7-7-7-7-7-7-7-7-7-7-7-7-5-5-|----------------4-4-4-4-4-4-4-4-|
E|--------------------------------|7-7-7-7-7-7-7-7-----------------|



(1:39)
G|9-9-9-9-9-9-9-9-9-9-9-9-9-9-9-9-|
D|--------------------------------|
A|--------------------------------|
E|--------------------------------|



(1:43)
G|--9---------------4-------------|--7---------------6-------------|
D|----------------6---------------|9---------------7---------------|
A|9-------------------------------|--------------------------------|
E|--------------------------------|--------------------------------|



(2:16)
G|--------------------------------|--------------------------------|
D|--------------------------------|--------------------------------|
A|7-7-7-7-7-7-7-7-7-7-7-7-7-7-5-5-|--------------------------------|
E|--------------------------------|7-7-7-7-7-7-7-7-5-5-5-5-5-5-5-5-|

G|--------------------------------|--------------------------------|
D|--------------------------------|--------------------------------|
A|7-7-7-7-7-7-7-7-7-7-7-7-7-7-5-5-|----------------4-4-4-4-4-4-4-4-|
E|--------------------------------|7-7-7-7-7-7-7-7-----------------|



(2:50)
G|--------------------------------|
D|--------------------------------|
A|7-7-7-7-7-7-7-7-7-7-7-7-7-7-7-7-|
E|--------------------------------|



(2:54)
G|4---------------6---------------|--------------------------------|
D|--------------------------------|6-------------------------------|
A|--------------------------------|--------------------------------|
E|--------------------------------|--------------------------------|



(3:27)
G|--------------------------------|--------------------------------|
D|--------------------------------|--------------------------------|
A|--------------------------------|--------------------------------|
E|7-7-7-7-7-7-7-7-5-5-5-5-5-5-5-5-|4-4-4-4-4-4-4-4-4-4-4-4-4-4-4-4-|



(4:17)
G|--------------------------------|--------------------------------|
D|--------------------------------|--------------------------------|
A|--------------------------------|--------------------------------|
E|7-7-7-7-7-7-7-7-5-5-5-5-5-5-5-5-|0-0-0-0-0-0-0-0-0-0-0-0-0-0-0-0-|



(5:24)
End on:
G|--------------------------------|--------------------------------|
D|--------------------------------|--------------------------------|
A|--------------------------------|--------------------------------|
E|0-------------------------------|(0)-----------------------------|
            
Submit corrections



        Open Your Arms lessons Hard to play? Try these video lessons and learn fast Open Your Arms lessons
        
↑ Back to top | Tablatures and chords for acoustic guitar and electric guitar, ukulele, drums are parodies/interpretations of the original songs. You may use it for private study, scholarship, research or language learning purposes only