» » »

Edguy - Arrows Fly Tabs

Artists:  A B C D E F G H I J K L M N O P Q R S T U V W X Y Z # 

Arrows Fly Tabs

(ver. 1) Click to play this song!
Edguy
 Rating:
3.6/5 (5 votes)


 Arrows Fly lessons Tabs too difficult? Try these video lessons and learn fast
 
                 /\/\/\/\/\/\/\/\/\/\/\/\/\/\/\/\/\/\/\/\/\/\/\/\/\
<                 Title: Arrows fly                >
<                  Artist:  Edguy                  >
<                                                  >
<           Trancribed by:  Niklas Lehto           >
<                                                  >
<     Send your comments, suggestion e.t.c to:     >
 \/\/\/\/\/\/\/\/\/\/\/\/\/\/\/\/\/\/\/\/\/\/\/\/\/

*Disable word wrap under edit to view this document correctly!

Tablature explanation:

h  = hammer on             .   = Palm mute
p  = pull off              A.H = Artificial harmonics
b  = Bend                  pb  = prebend
r  = release bend          s   = slide


All guitars are 1/2 downed


[Intro:]

Tip: Push both strings at the 10:th fret with your indexfinger,
then move indexfinger across the fretboard to match the "pulloff notes".

Pick notes with a P written above.


    P     P  P     P  P   P     P        P  P      P     P  P     P  P
P     P     P     P
eb||13p10----12p10----13-|15p12-12h13p12-12-15p12-|17p13----15p13----17p13-|
18p13-17p13-15p13-17p13-|
Bb||------10-------10----|------------------------|------13-------13-------|
------------------------|
Gb||---------------------|------------------------|------------------------|
------------------------|
Db||---------------------|------------------------|------------------------|
------------------------|
Ab||---------------------|------------------------|------------------------|
------------------------|
Eb||---------------------|------------------------|------------------------|
------------------------|
  ||
|
eb||---------------------|------------------------|------------------------|
------------------------|
Bb||---------------------|------------------------|------------------------|
------------------------|
Gb||---------------------|------------------------|------------------------|
------------------------|
Db||7--------------------|5-----------------------|------------------------|
3-----------------------|
Ab||5--------------------|3-----------------------|3-----------------------|
1-----------------------|
Eb||---------------------|------------------------|1-----------------------|
------------------------|


    P     P  P     P  P   P    P P    P P     P    P P   P P     P   P P
P P
eb||13p10----12p10----13-|12p8---10p8---12p8-|10p6---8p6---10p6-|8p6---10p6-
--8p6-|
Bb||------10-------10----|-----8------8------|-----6-----6------|----6------
6-----|
Gb||---------------------|-------------------|------------------|-----------
------|
Db||---------------------|-------------------|------------------|-----------
------|
Ab||---------------------|-------------------|------------------|-----------
------|
Eb||---------------------|-------------------|------------------|-----------
------|
  ||
|
eb||---------------------|-------------------|------------------|-----------
------|
Bb||---------------------|-------------------|------------------|-----------
------|
Gb||---------------------|-------------------|------------------|-----------
------|
Db||7--------------------|5------------------|3-----------------|3----------
------|
Ab||5--------------------|3------------------|1-----------------|1----------
------|
Eb||---------------------|-------------------|------------------|-----------
------|


    P     P  P     P  P   P     P        P  P      P     P  P     P  P
P     P     P     P
eb||13p10----12p10----13-|15p12-12h13p12-12-15p12-|17p13----15p13----17p13-|
18p13-17p13-15p13-17p13-|
Bb||------10-------10----|------------------------|------13-------13-------|
------------------------|
Gb||---------------------|------------------------|------------------------|
------------------------|
Db||---------------------|------------------------|------------------------|
------------------------|
Ab||---------------------|------------------------|------------------------|
------------------------|
Eb||---------------------|------------------------|------------------------|
------------------------|
  ||
|
eb||---------------------|------------------------|------------------------|
------------------------|
Bb||---------------------|------------------------|------------------------|
------------------------|
Gb||---------------------|------------------------|------------------------|
------------------------|
Db||7--------------------|5-----------------5-----|------------------------|
3-----*-----3-----------|
Ab||5--------------------|3-----------------3-----|3-----------------------|
1-----*-----1-----------|
Eb||---------------------|------------------------|1-----------------------|
------------------------|


    P     P  P     P  P   P    P P    P P     P    P P   P P     P   P P
P P
eb||13p10----12p10----13-|12p8---10p8---12p8-|10p6---8p6---10p6-|8p6---10p6-
--8p6-|
Bb||------10-------10----|-----8------8------|-----6-----6------|----6------
6-----|
Gb||---------------------|-------------------|------------------|-----------
------|
Db||---------------------|-------------------|------------------|-----------
------|
Ab||---------------------|-------------------|------------------|-----------
------|
Eb||---------------------|-------------------|------------------|-----------
------|
  ||
|
eb||---------------------|-------------------|------------------|-----------
------|
Bb||---------------------|-------------------|------------------|-----------
------|
Gb||---------------------|-------------------|------------------|-----------
------|
Db||7--------------------|5-------------5----|3-----------------|3----------
------|
Ab||5--------------------|3-------------3----|1-----------------|1----------
------|
Eb||---------------------|-------------------|------------------|-----------
------|


[Verse 1:]

eb||----------------|----------------|----------------|----------------|
Bb||----------------|----------------|----------------|----------------|
Gb||----------------|----------------|----------------|----------------|
Db||----------------|----------------|----------------|----------------|
Ab||5555555555555555|7---------------|3333333333333333|3---------------|
Eb||----------------|5---------------|----------------|1---------------|
    ................                  ................
Faking the thruth in their eyes...   smile but they really deride

eb||----------------|----------------|----------------|----------------|
Bb||----------------|----------------|----------------|----------------|
Gb||----------------|----------------|----------------|----------------|
Db||----------------|----------------|----------------|----------------|
Ab||5-------3-------|1-------5-------|5-----5-----5---|5-----5-----5---|
Eb||----------------|----------------|3-33333-33333-33|3-33333-33333-33|
  ||                                    ....  ....  ..   ....  ....  ..|
eb||----------------|----------------|----------------|----------------|
Bb||----------------|----------------|----------------|----------------|
Gb||7-------5-------|3-------2-------|0---------------|----------------|
Db||----------------|----------------|----------------|----------------|
Ab||----------------|----------------|----------------|----------------|
Eb||----------------|----------------|----------------|----------------|
   ne  -   ver       give    you      shelter

eb||----------------|----------------|----------------|----------------|
Bb||----------------|----------------|----------------|----------------|
Gb||----------------|----------------|----------------|----------------|
Db||----------------|----------------|----------------|----------------|
Ab||5555555555555555|----------------|5555555555555555|----------------|
Eb||----------------|3-3333333-333333|----------------|3-3333333-333333|
    ................ . ....... ...... ................ . ....... ......
    Lady    all     alone,            naked   to  the bone

eb||----------------|----------------|----------------|----------------|
Bb||----------------|----------------|----------------|----------------|
Gb||----------------|----------------|----------------|----------------|
Db||----------------|----------------|----------------|----------------|
Ab||5-------3-------|1-------5-------|5-----5-----5---|5-----5-----5---|
Eb||----------------|----------------|3-33333-33333-33|3-33333-33333-33|
  ||                                    ....  ....  ..   ....  ....  ..|
eb||----------------|----------------|----------------|----------------|
Bb||----------------|----------------|----------------|----------------|
Gb||7-------5-------|3-------2-------|0---------------|----------------|
Db||----------------|----------------|----------------|----------------|
Ab||----------------|----------------|----------------|----------------|
Eb||----------------|----------------|----------------|----------------|
    make    you      bleed   and      melt in - to     tears,


[Bridge:]

This one is probably wrong, I think it's two guitars, and I have figured
them out but been to lazy to trancribe it. Sorry...

eb||----------------|-----------------|----------------|----------------|
Bb||----------------|----------8------|----------------|----------------|
Gb||7---10-9--7---5-|7---10-9--7---10-|7---10-9--7---5-|----------------|
Db||7---7--7--7---7-|7---7--7--7---7--|7---7--7--7---7-|----3-------5---|
Ab||--55----55--55--|--55----55--55---|--55----55--55--|11111---33333---|
Eb||----------------|-----------------|----------------|----------------|
      ..    ..  ..     ..    ..  ..      ..    ..  ..   ....    ....


Down on your knees you will see what you could be,
Raise the power in your eyes! Makes you rise,
to make you


eb||----------------|---------------------|--------------|
Bb||----------------|---------------------|--------------|
Gb||----------------|---------------------|--------------|
Db||----------------|---------------------|7-------------|
Ab||7---------------|7--------------------|5-------------|
Eb||5---------------|5--------------------|--------------|
  ||                                                     |
eb||----------------|---------------------|--------------|
Bb||----------------|---------------------|--------------|
Gb||----------------|---------------------|--------------|
Db||-7-5-3-2-2h3p2--|-7-5-3h5p3-2h3p2p0---|--------------|
Ab||--------------0-|-------------------3-|5-------------|
Eb||----------------|---------------------|--------------|

    say                                    Down and alone!


eb||-----------------|----------------|----------------|
Bb||-----------------|----------------|----------------|
Gb||-----------------|----------------|----------------|
Db||3----------------|----------------|----------------|
Ab||1-------3--------|3333333333333333|3333333333333333|
Eb||--------1--------|----------------|----------------|
                      ................ ................
    A  -  rrows       fly!

eb||----------------|----------------|----------------|----------------|
Bb||----------------|----------------|----------------|----------------|
Gb||----------------|----------------|----------------|----------------|
Db||----------------|----------------|----------------|----------------|
Ab||1111111111111111|1111111111111111|----------------|3333333333333333|
Eb||----------------|----------------|1111111111111111|----------------|
    ................ ................ ................ ................







eb||-----------------|----------------|----------------|----------------|
Bb||-----------------|----------------|----------------|----------------|
Gb||-----------------|----------------|----------------|----------------|
Db||3----------------|----------------|3---------------|----------------|
Ab||1----------------|3---------------|1---------------|3---------------|
Eb||-----------------|1---------------|----------------|1---------------|

    I'll remember times when arrows hit me causing pain

eb||-----------------|----------------|----------------|----------------|
Bb||-----------------|----------------|----------------|----------------|
Gb||-----------------|----------------|----------------|----------------|
Db||5----------------|----------------|3---------------|----------------|
Ab||3----------------|5---------------|1---------------|----------------|
Eb||-----------------|3---------------|----------------|----------------|

    All alone I found my soul and now my soul

eb||-----------------|----------------|----------------|----------------|
Bb||-----------------|----------------|----------------|----------------|
Gb||-----------------|----------------|----------------|----------------|
Db||5----------------|----------------|----------------|----------------|
Ab||3----------------|----------------|----------------|----------------|
Eb||-----------------|----------------|----------------|----------------|

   is sane


[Solo:]

eb||8-----6---4-------------------15-15b16---15-13-15---
Bb||--------------6-------------------------------------
Gb||----------------------------------------------------
Db||----------------------------------------------------
Ab||----------------------------------------------------
Eb||----------------------------------------------------
  ||
eb||----------------------------------------------------
Bb||9-----8---6-----------------------------------------
Gb||--------------6-------------------------------------
Db||----------------------------------------------------
Ab||----------------------------------------------------
Eb||----------------------------------------------------

There's plenty of work to do on this one, perhaps someone else will feel
inspired to continue?
            
Submit corrections



        Arrows Fly lessons Hard to play? Try these video lessons and learn fast Arrows Fly lessons
        
↑ Back to top | Tablatures and chords for acoustic guitar and electric guitar, ukulele, drums are parodies/interpretations of the original songs. You may use it for private study, scholarship, research or language learning purposes only