» » »

Early November - Something That Produces Results Tabs

Artists:  A B C D E F G H I J K L M N O P Q R S T U V W X Y Z # 

Something That Produces Results Tabs

(ver. 2) Click to play this song!
Early November
 Rating:
4/5 (4 votes)
    Something That Produces Results lessons Tabs too difficult? Try these video lessons and learn fast
                -------------------------------------------------------------------------------
                     Something That Produces Results (Acoustic)
-------------------------------------------------------------------------------



Tuning: Drop D / half step down
       

INtro/Chorus
e|------------------------------------------------------------------------X-X-X-X-|
B|------------------------------------------------------------------------X-X-X-X-|
G|---7-7-7-7---7-7-7-7---7-7-7-7---7-7-7-7---7-7-7-7--7-7-7-7---7-7-7-7---X-X-X-X-|   
D|---7-7-7-7---7-7-7-7---7-7-7-7---7-7-7-7---7-7-7-7--7-7-7-7---7-7-7-7---X-X-X-X-|X2
A|---4-4-4-4---0-0-0-0---x-x-x-x---0-0-0-0---4-4-4-4--0-0-0-0---x-x-x-x---X-X-X-X-|
D|---4-4-4-4---0-0-0-0---7-7-7-7---0-0-0-0---4-4-4-4--0-0-0-0---7-7-7-7---X-X-X-X-|


Transition
e|----------------------------------------|
B|----------------------------------------|
G|--------7----------7----------7------7~-|
D|------7---7------7---7------7---7----7~-|
A|-------------------------------------5~-|
D|--/4---------/5----------/4----------5~-|


 Verse
"And She Shows..."
e|---------------------|
B|---------------------|
G|---7-7-7-7---7-7-7-7-|
D|---7-7-7-7---7-7-7-7-|x4
A|---5-5-5-5---4-4-4-4-|
D|---x-x-x-x---4-4-4-4-|

Into Chorus
"And now you're I'm scared"
e|--------------------|
B|--------------------|
G|---7-7-7-7--7-7-7-7-|
D|---7-7-7-7--7-7-7-7-| (down-strumming)
A|---4-4-4-4/-5-5-5-5-|
D|---4-4-4-4/-5-5-5-5-|

Chorus X4


Breakdown into Bridge
e|--------------------------------------------------------------------------|
B|--------------------------------------------------------------------------|
G|--------------------------------------------------------------------------|
D|---4-5h/7---4-5h/7\5/7---4-5h/7---4-5h/7\5\7---0~---4-5h/7---4-5h/7\5/7^~-| 
A|---4--------4------------4--------4------------0~---4--------4------------|
D|---4--------4------------4--------4------------0~---4--------4------------|
                (do this a lot)      and then this^  (then this a lot again)

"All I Can See..."
e|---------------------------------------------|
B|---------------------------------------------|
G|--------7----------7----------7----------7---|
D|------7---7------7---7------7---7------7---7-| X2
A|---------------------------------------------|
D|---4---------4----------/5----------5--------|

"And Now I'm Scared. And Now I'm Scared. And Now I'MMM Scared."
e|-------------------------------------------------------------------------|
B|-------------------------------------------------------------------------|
G|--------7----------7----------7----------7------7-7-7-7--7-7-7-7------7+-|
D|------7---7------7---7------7---7------7---7----7-7-7-7--7-7-7-7------7+-|
A|------------------------------------------------4-4-4-4--5-5-5-5------7+-|
D|---4---------4----------/5----------5-----------4-4-4-4--5-5-5-5------7+-|

Chorus x4

End on
e|-------|
B|-------|
G|--7~---|
D|--7~---|
A|--x~---|
D|--7~---|



| /  slide up
| \  slide down
| h  hammer-on
| p  pull-off
| ~  vibrato
| +  harmonic
| x  Mute note
===============================================================================
            
Submit corrections

↑ Back to top | Tablatures and chords for acoustic guitar and electric guitar, ukulele, drums are parodies/interpretations of the original songs. You may use it for private study, scholarship, research or language learning purposes only