» » »

Early November - From Here To La Tabs

Artists:  A B C D E F G H I J K L M N O P Q R S T U V W X Y Z # 

From Here To La Tabs

(ver. 2) Click to play this song!
Early November
 Rating:
4/5 (5 votes)


 From Here To La lessons Tabs too difficult? Try these video lessons and learn fast
 
                I saw that the other tab had some minor errors so I went and tab it according to what I hear.

I'm pretty sure this is 95% correct. I really had to slow down the tempo to figure out 
it's being played. Hope you guys like it! Big fan of Early November, I always tab their 

SilverCapo


solo
e|------------15-14-12/10-----------------------------------------------------------------------|
B|--12~/10----------------13-12-10/8------------------------------------------------------------|
G|--14~/12--------------------------------------------------------------------------------------|
D|-------------------------------------10/12~---/14-14~---10/9-------9p10-14-12-----------------|
A|-------------------------------------------------------------10---------------12----10~-------|
E|----------------------------------------------------------------------------------------------|

e|----------------------------------------------------------------------15---------------------|
B|-------------------------------------------12/13-12-------------15h17----15/17----12p13p12-15|
G|-12/14~12----------------------------------12/14-12----12~-----------------------------------|
D|-12/14~12--9p10-9--0p2-5------7/9-7-----------------14---------------------------------------|
A|---------------------------------------------------------------------------------------------|
E|---------------------------------------------------------------------------------------------|

e|------------------------------------------|
B|---------15-------------------------------|
G|---12/16----16~-14/16/14~-12~-------------|
D|------------------------------------------|
A|------------------------------------------|
E|------------------------------------------|

      but i have a book on skills...
e|------------------------------------|
B|------------------------------------|
G|------------------------------------|
D|--9-10p9-9/12-----------------------|
A|------------------------------------|
E|------------------------------------|

      to survive in the woods...
e|------------------------------------|
B|------------------------------------|
G|------------------------------------|
D|--9-10p9-12-10-14-------------------|
A|------------------------------------|
E|------------------------------------|
            
Submit corrections



        From Here To La lessons Hard to play? Try these video lessons and learn fast From Here To La lessons
        
↑ Back to top | Tablatures and chords for acoustic guitar and electric guitar, ukulele, drums are parodies/interpretations of the original songs. You may use it for private study, scholarship, research or language learning purposes only