» » »

Early November - Come Back Tabs

Artists:  A B C D E F G H I J K L M N O P Q R S T U V W X Y Z # 

Come Back Tabs

(ver. 1) Click to play this song!
Early November
 Rating:
4.6/5 (10 votes)
    Come Back lessons Tabs too difficult? Try these video lessons and learn fast
                half step down...drop D

e------------------------------------------------------------------------0---
b------------------------------------------------------------------------0---
g--------0--------0--------0-------0--------0-------0-------0-------0----0---
d------4---4----4---4----4---4---4---4----4---4---4---4---4---4---4---4--4---  (INTRO)
a----5--------5--------0-------0-----------------------------------------5---
D---------------------------------------5-------5-------5-------5--------5---

looking in your eyes...
e------------------------------------------------------------------------
b------------------------------------------------------------------------   REPEAT 4x
g--------0--------0--------0-------0--------0-------0-------0-------0----
d------4---4----4---4----4---4---4---4----4---4---4---4---4---4---4---4--   (VERSE)
a----5--------5--------0-------0-----------------------------------------
D---------------------------------------5-------5-------5-------5--------

come back...
e-------------------------------------------------------------------------
b-------------------------------------------------------------------------  REPEAT 5x
g--7-7----7-7-7----7-7-7-7-7-7-7-7---------------------------------------- 
d--7-7----7-7-7----7-7-7-7-7-7-7-7----------------------------------------  (CHORUS)
a--5-5----7-7-7----5-5-5-5-5-5-5-5----------------------------------------
D------------------5-5-5-5-5-5-5-5----------------------------------------

   PALM MUTE
e------------------------------------------------------------------------
b------------------------------------------------------------------------  REPEAT 2x 
g--------0--------0--------0-------0--------0-------0-------0-------0----
d------4---4----4---4----4---4---4---4----4---4---4---4---4---4---4---4--   
a----5--------5--------0-------0-----------------------------------------
D---------------------------------------5-------5-------5-------5--------

waiting by your side...
e------------------------------------------------------------------------
b------------------------------------------------------------------------   REPEAT 4x
g--------0--------0--------0-------0--------0-------0-------0-------0----
d------4---4----4---4----4---4---4---4----4---4---4---4---4---4---4---4--   (VERSE)
a----5--------5--------0-------0-----------------------------------------
D---------------------------------------5-------5-------5-------5--------

come back...
e-------------------------------------------------------------------------
b-------------------------------------------------------------------------  REPEAT 5x
g--7-7----7-7-7----7-7-7-7-7-7-7-7---------------------------------------- 
d--7-7----7-7-7----7-7-7-7-7-7-7-7----------------------------------------  (CHORUS)
a--5-5----7-7-7----5-5-5-5-5-5-5-5----------------------------------------
D------------------5-5-5-5-5-5-5-5----------------------------------------

...but i'll wait
e-------------------------------------------------------------------
b-------------------------------------------------------------------  REPEAT 10x
g--7--7--7---7--7--7----7--7--7--7---------------------------------- 
d--7--7--7---7--7--7----7--7--7--7----------------------------------  (second CHORUS)
a--5--5--5---7--7--7----5--5--5--5----------------------------------
D-----------------------5--5--5--5----------------------------------

i am a huge T.E.N. fan, gotta be one of the best emo bands out right now...i almost 
            
Submit corrections

↑ Back to top | Tablatures and chords for acoustic guitar and electric guitar, ukulele, drums are parodies/interpretations of the original songs. You may use it for private study, scholarship, research or language learning purposes only