» » »

Eagles - Last Good Time In Town Tabs

Artists:  A B C D E F G H I J K L M N O P Q R S T U V W X Y Z # 

Last Good Time In Town Tabs

(ver. 1) Click to play this song!
Eagles
 Rating:
4/5 (4 votes)


 Last Good Time In Town lessons Tabs too difficult? Try these video lessons and learn fast
 
                -------------------------------------------------------------------------------
                          Last good time in town - The Eagles
-------------------------------------------------------------------------------

Tuning: Standard

b^ - full bend
b - half bend
pb^ - full pre bend
pb - half pre bend


Intro

e|-------------------------------------------------------13------------------|
B|---------------------------------pb^8----6b^--------13----15---------------|
G|---------------5-7-7b^---5-7-7b^----x--7------7/14-------------------------|
D|--------3-5/7-----------------------x--------------------------------------|
A|---3-5---------------------------------------------------------------------|
E|---------------------------------------------------------------------------|

Solo

e|----------------------------------------------------------10---------------|
B|------------------------------------pb^8----6b^--------10----13-13b^-------|
G|-------------5-7-7b^--7b^p5-7-5-7b^----x--7-------12b^---------------------|
D|-------3-5/7---------------------------x-----------------------------------|
A|---3-5---------------------------------------------------------------------|
E|---------------------------------------------------------------------------|

e|---------------------------------------------------------------------------|
B|---15----13----11------------10------10----10-10---------------------------|
G|------14----12----11-12------10------10----10-10---------------------------|
D|------------------------12-------------------------------------------------|
A|--------------------------------10-8--------------10-8---------------------|
E|----------------------------------------10-------------10------------------|

e|------------------------------------13b^-13b^-13b^-15b^----13b^-13b^-13----|
B|------13----12-------------------15---------------------15--------------15-|
G|------------------14----12-10b---------------------------------------------|
D|---12----12----12----12----------------------------------------------------|
A|---------------------------------------------------------------------------|
E|---------------------------------------------------------------------------|

e|------------------------------------5--------------------------------------|
B|----------------------------------5----------------------------------------|
G|--pb^14-----------------------7b^-----7p6-------2---4-2-4b^----------------|
D|------x--15-------------------------------7-2-4---4------------------------|
A|------------15-------------------------------------------------------------|
E|---------------15-13-15/17-------------------------------------------------|

e|----------------------------------5-------------------------5-7-7b^--------|
B|--------------------------------5---------------------5-5/7----------------|
G|---4b^-2-4---2-------4-2----7b^-----7p6-------2-4-4/6----------------------|
D|-----------4---2-4-2-4-2----------------7-2-4------------------------------|
A|---------------------------------------------------------------------------|
E|---------------------------------------------------------------------------|

e|---12-14-14b-14-14b-pb14-12-------12-15b^-15b^----15----14----12-----9\----|
B|----------------------------15-14------------------------------------------|
G|----------------------------------------------/14----14----12----11--9\----|
D|---------------------------------------------------------------------------|
A|---------------------------------------------------------------------------|
E|---------------------------------------------------------------------------|

e|--------------------17-15----15-17---22\-----------------------------------|
B|------12-13-15-17---17-15-17-15-17-----------------------------------------|
G|---14-12-14-14-16---------16---------22\-----------------------------------|
D|---14----------------------------------------------------------------------|
A|---------------------------------------------------------------------------|
E|---------------------------------------------------------------------------|


************************************

| /   slide up
| \   slide down
| h   hammer-on
| p   pull-off
| ~   vibrato
| +   harmonic
| x   Mute note
| b   Bend
| pb  Pre-bend
| br  Bend release
| pbr Pre-bend release
| brb Bend release bend

***********************************
            
Submit corrections



        Last Good Time In Town lessons Hard to play? Try these video lessons and learn fast Last Good Time In Town lessons
        
↑ Back to top | Tablatures and chords for acoustic guitar and electric guitar, ukulele, drums are parodies/interpretations of the original songs. You may use it for private study, scholarship, research or language learning purposes only