» » »

Eagles - How Long Tabs

Artists:  A B C D E F G H I J K L M N O P Q R S T U V W X Y Z # 

How Long Tabs

(ver. 3) Click to play this song!
Eagles
 Rating:
4/5 (4 votes)


 How Long lessons Tabs too difficult? Try these video lessons and learn fast
 
                -----------------------------------------------------------------------------
                             How Long – The Eagles
-----------------------------------------------------------------------------

Tuning:Standard

So I’m pretty sure this is very close to being completely correct. I cannot figure out 
last few notes so please if you can, repost this song with corrections and its ending

Thanks

e|-------------------------8------------------------------------------------|
B|--------------1-3—1--3s5----3br-1-3----------10----10---10--10--10--8--3--|
G|--2p0---0--2-------------------------0-3s5---12b—pb12r--12--12--10—-8--3--|
D|------2-------------------------------------------------------------------|
A|--------------------------------------------------------------------------|
E|--------------------------------------------------------------------------|

e|--------------------------------------------------------------------------|
B|------------------------------------8---8—s17--13---15-----15----15----15-|
G|--1-3-1b-------------------5—5s9--9---9-------------14b--pb14--pb14--pb14-|
D|----------3-1-3-------5---------------------------------------------------|
A|----------------3--s7---7-------------------------------------------------|
E|--------------------------------------------------------------------------|

e|--------------------------------------------------------------------------|
B|----15--------------------------------------------------------------------|
G|--pb14r--12----------????????---------------------------------------------|
D|---------------------????????---------------------------------------------|
A|--------------------------------------------------------------------------|
E|--------------------------------------------------------------------------|

Legend

P = pull off
S = slide
B = bend
Pb= pre-bend
R = release
            
Submit corrections



        How Long lessons Hard to play? Try these video lessons and learn fast How Long lessons
        
↑ Back to top | Tablatures and chords for acoustic guitar and electric guitar, ukulele, drums are parodies/interpretations of the original songs. You may use it for private study, scholarship, research or language learning purposes only