Home » D » Dropkick Murphys »

Dropkick Murphys - Get Up Tabs

Artists:  A B C D E F G H I J K L M N O P Q R S T U V W X Y Z # 

Get Up Tabs

(ver. 1) Click to play this song!
Dropkick Murphys
 Rating:
4/5 (4 votes)
                Tuning: Standard


Intro:
e|---------------------------------------------------------------------------|
B|---------------------------------------------------------------------------|
G|--999999999999999999999999999----------------------------------------------|
D|---------------------------------------------------------------------------|
A|---------------------------------------------------------------------------|
E|---------------------------------------------------------------------------|

e|---------------------------------------------------------------------------|
B|---------------------------------------------------------------------------|
G|--9------------------------------------------------------------------------|
D|--9--7--9------------------------------------------------------------------|
A|--7--7--9------------------------------------------------------------------|
E|-----5--7------------------------------------------------------------------|


Verse:
e|---------------------------------------------------------------------------|
B|---------------------------------------------------------------------------|
G|--9---------9--------------------------------------------------------------|
D|--9--9--7---9--7--9--------------------------------------------------------|
A|--7--9--7---7--7--9--------------------------------------------------------|
E|-----7--5------5--7--------------------------------------------------------|


Chorus:
e|---------------------------------------------------------------------------|
B|---------------------------------------------------------------------------|
G|--9---------9--------------------------------------------------------------|
D|--9--9--7---9--9--7--------------------------------------------------------|
A|--7--9--7---7--9--7--------------------------------------------------------|
E|-----7--5------7--5--------------------------------------------------------|


Outro:
e|---------------------------------------------------------------------------|
B|---------------------------------------------------------------------------|
G|--9---------9--------------------------------------------------------------|
D|--9--9--7---9--9--7--------------------------------------------------------|
A|--7--9--7---7--9--7--------------------------------------------------------|
E|-----7--5------7--5--------------------------------------------------------|

Intro: x1
Verse: x2
Chorus: x2
Verse: x2
Chorus: x2
Outro: x2
            
Submit corrections

↑ Back to top | Tablatures and chords for acoustic guitar and electric guitar, ukulele, drums are parodies/interpretations of the original songs. You may use it for private study, scholarship, research or language learning purposes only