» » »

Dredg - Bug Eyes Tabs

Artists:  A B C D E F G H I J K L M N O P Q R S T U V W X Y Z # 

Bug Eyes Tabs

(ver. 3) Click to play this song!
Dredg
 Rating:
4/5 (4 votes)

 Bug Eyes lessons Tabs too difficult? Try these video lessons and learn fast
 
                Intro x4 (fast picking)
e|-3-3-3-3-5-5-5-5-6-6-6-6-10-10-10-10-13-13-13-13-15-15-15-15-18-18-18-18-|
B|-------------------------------------------------------------------------|
G|-------------------------------------------------------------------------|
D|-------------------------------------------------------------------------|
A|-------------------------------------------------------------------------|
E|-------------------------------------------------------------------------|

last part
e|-3-3-3-3-5-5-5-5-6-6-6-6-10-10-10-10-6-6-6-6-5-5-5-5---------------------|
B|-------------------------------------------------------------------------|
G|-------------------------------------------------------------------------|
D|-------------------------------------------------------------------------|
A|-------------------------------------------------------------------------|
E|-------------------------------------------------------------------------|


Intro Guitar x4 (comes in on 2nd measure)
e|-------------------------------------------------------------------------|
B|-------------------------------------------------------------------------|
G|-12-12-12-12-12-12-12-12--10-10-10-10-10-10-10-10------------------------|
D|-------------------------------------------------------------------------|
A|-10-10-10-10-10-10-10-10--8--8--8--8--8--8--8--8-------------------------|
E|-------------------------------------------------------------------------|


Intro Guitar x3 (comes in on 4th measure)
e|-------------------------------------------------------------------------|
B|-------------------------------------------------------------------------|
G|-12-12-12-12-12-12-12-12--10-10-10-10-10-10-10-10------------------------|
D|-12-12-12-12-12-12-12-12--10-10-10-10-10-10-10-10------------------------|
A|-10-10-10-10-10-10-10-10--8--8--8--8--8--8--8--8-------------------------|
E|-------------------------------------------------------------------------|

Intro Guitar 4th time
e|-------------------------------------------------------------------------|
B|-------------------------------------------------------------------------|
G|-------------------------------------------------------------------------|
D|-8-8-8-8-8-8-8-8--3-3-3-3-3-3-3-3----------------------------------------|
A|-8-8-8-8-8-8-8-8--3-3-3-3-3-3-3-3----------------------------------------|
E|-6-6-6-6-6-6-6-6--1-1-1-1-1-1-1-1----------------------------------------|

verse 
e|-------------------------------------------------------------------------|
B|-8-8-8-8-8-8-8-8--6-6-6-6-6-6-6-6----------------------------------------|
G|-7-7-7-7-7-7-7-7--7-7-7-7-7-7-7-7----------------------------------------|
D|-8-8-8-8-8-8-8-8--8-8-8-8-8-8-8-8----------------------------------------|
A|-------------------------------------------------------------------------|
E|-------------------------------------------------------------------------|

e|-------------------------------------------------------------------------|
B|-11-11-11-11-11-11-11-11--10-10-10-10-10-10-(10-10)-at the end of-(13-13)-|
G|-12-12-12-12-12-12-12-12--12-12-12-12-12-12-(12-12)--each last----(12-12)-|
D|-12-12-12-12-12-12-12-12--12-12-12-12-12-12-(12-12)---measure-----(12-12)-|
A|-------------------------------------------------------------------------|
E|-------------------------------------------------------------------------|

Pre Chorus
e|-------------------------------------------------------------------------|
B|--8--8-8---10--10-10---11--11-11---15--15-15-----------------------------|
G|-7--7-----9---9------10--10------15--15----------------------------------|
D|-------------------------------------------------------------------------|
A|-------------------------------------------------------------------------|
E|-------------------------------------------------------------------------|

e|-------------------------------------------------------------------------|
B|-------------------------------------------------------------------------|
G|-------------------------------------------------------------------------|
D|-8-8-8-8-8-8-8-8--3-3-3-3-3-3-3-3----------------------------------------|
A|-8-8-8-8-8-8-8-8--3-3-3-3-3-3-3-3----------------------------------------|
E|-6-6-6-6-6-6-6-6--1-1-1-1-1-1-1-1----------------------------------------|


Chorus x2
e|-------------------------------------------------------------------------|
B|-8-8-8-8-6-6-6-6-3-3-3-3-1-1-1-1-(fast pic)------------------------------|
G|-------------------------------------------------------------------------|
D|-----------------------------------------5-5-5-5-5-5-5-5-5-5-5-5-5-5-5-5-|
A|-----------------------------------------5-5-5-5-5-5-5-5-5-5-5-5-5-5-5-5-|
E|-----------------------------------------3-3-3-3-3-3-3-3-3-3-3-3-3-3-3-3-|

e|-------------------------------------------------------------------------|
B|-------------------------------------------------------------------------|
G|-------------------------------------------------------------------------|
D|-8-8-8-8-8-8-8-8-8-8-8-8-8-8-8-8--3-3-3-3-3-3-3-3-3-3-3-3-3-3-3-3--------|
A|-8-8-8-8-8-8-8-8-8-8-8-8-8-8-8-8--3-3-3-3-3-3-3-3-3-3-3-3-3-3-3-3--------|
E|-6-6-6-6-6-6-6-6-6-6-6-6-6-6-6-6--1-1-1-1-1-1-1-1-1-1-1-1-1-1-1-1--------|

(VERSE)

(PRE CHORUS)

(CHORUS)

Bridge
e|-3/////////////////15----------------------------------------------------|
B|-------------------------------------------------------------------------|
G|-------------------------------------------------------------------------|
D|-------------------------------------------------------------------------|
A|-------------------------------------------------------------------------|
E|-------------------------------------------------------------------------|


Intro  (fast picking)
e|-3-3-3-3-5-5-5-5-6-6-6-6-10-10-10-10-13-13-13-13-15-15-15-15-18-18-18-18-|
B|-------------------------------------------------------------------------|
G|-------------------------------------------------------------------------|
D|-------------------------------------------------------------------------|
A|-------------------------------------------------------------------------|
E|-------------------------------------------------------------------------|

last part
e|-3-3-3-3-5-5-5-5-6-6-6-6-10-10-10-10-6-6-6-6-5-5-5-5---------------------|
B|-------------------------------------------------------------------------|
G|-------------------------------------------------------------------------|
D|-------------------------------------------------------------------------|
A|-------------------------------------------------------------------------|
E|-------------------------------------------------------------------------|

Intro Guitar
e|-------------------------------------------------------------------------|
B|-------------------------------------------------------------------------|
G|-12-12-12-12-12-12-12-12--10-10-10-10-10-10-10-10------------------------|
D|-12-12-12-12-12-12-12-12--10-10-10-10-10-10-10-10------------------------|
A|-10-10-10-10-10-10-10-10--8--8--8--8--8--8--8--8-------------------------|
E|-------------------------------------------------------------------------|

Intro Guitar
e|-------------------------------------------------------------------------|
B|-------------------------------------------------------------------------|
G|-------------------------------------------------------------------------|
D|-8-8-8-8-8-8-8-8--3-3-3-3-3-3-3-3----------------------------------------|
A|-8-8-8-8-8-8-8-8--3-3-3-3-3-3-3-3----------------------------------------|
E|-6-6-6-6-6-6-6-6--1-1-1-1-1-1-1-1----------------------------------------|

(CHORUS)
            
Submit corrections


        Bug Eyes lessons Hard to play? Try these video lessons and learn fast Bug Eyes lessons
        
↑ Back to top | Tablatures and chords for acoustic guitar and electric guitar, ukulele, drums are parodies/interpretations of the original songs. You may use it for private study, scholarship, research or language learning purposes only